Acordes de Guitarra » M »Moderatto » Jingle Bells (Tab)

Jingle Bells
Moderatto

Letras, Acordes y Tabs para Guitarra, Bajo y Ukulele

  • D5 - G5 - D5 - E5 - A5
    D5 - G5 - D5 - E5 - A5
    
    
    D5
    Navidad, navidad, llego navidad
    G5           D5            E5       A5
    Alegria de estar contentos y  felicidad
    D5
    Navidad, navidad, hoy es navidad
    G5            D5          E5       A5
    Con campanas este dia hay que celebrar
    
    
       D5                                          G5
       Ya llego la navidad y con ella el rock and roll
                        A5                        D5
       Santa nos trajo guitarras con su amplificador
       D5                                         G5
       vamos a bailar 'slam' pero sin perder el 'glam'
    
  • |-E-|
    |-B-|
    |-G-|
    |-D-|
    |-A-|
    |-E-|
    
    2:01
    ||----------------------------------------------||
    ||-----------6----------------------------------||
    ||---5/7-7--7-7---------------------------------||
    ||------------------5-3-5p3----3-5p3---3-3------||
    ||---------------------------5-------5-----5----||
    ||----------------------------------------------||
    
    
    ||----------------------------------------------||
    ||------------------------------^6------6-6-----||
    ||------------------------5-7-------7-------7---||
    ||------------3-----3-5-7-----------------------||
    
  • +
    ¡Colabora con nosotros!
    Envíanos tu versión de esta canción

Letra de Jingle Bells
Navidad, navidad, llego navidad
Alegria de estar contentos y felicidad
Navidad, navidad, hoy es navidad
Con campanas este dia hay que celebrar
Ya llego la navidad y con ella el rock and roll
Santa nos trajo guitarras con su amplificador
vamos a bailar 'slam' pero sin perder el 'glam'
todos vamos a rockear en esta navidad
Navidad, navidad, llego navidad
Alegria de estar contentos y felicidad
Navidad, navidad, hoy es navidad
Con campanas este dia hay que celebrar
Acordes a Utilizar:




[Jingle Bells chords][Jingle Bells cifra]
© LaCuerda.net · aviso legal · privacidad · es · en · pt · contacto