Acordes de Guitarra » M »Moderatto » No hay otra manera (Tab)

No hay otra manera
Moderatto

  • Letra y Acordes
    G           D
    tu puedes reir
           Am           C
    mientra yo lloro por ti
    G           D
    tu vas por ahi
            Am
    mientras yo no me levanto
           C            D
    harto de extrañarte tanto tanto
    
    tu vives sin mi
    mientras yo muero por ti
    y tu puedes seguir
    mientras yo no me la acabo
    me dejaste solo y destrozado
    
    
    PRE-CORO
    Em   D      G          C
    
  • Letra y Acordes
    e|-0-----------------------|
    B|-3-----------------------|
    G|-0-----------------------|
    D|-2-----------------------|
    A|-3-----------------------|
    E|-x-----------------------|
    
    
    Solba(si prefieren hagan Re)
    e|-3-----------------------|
    B|-3-----------------------|
    G|-2-----------------------|
    D|-0-----------------------|
    A|-0-----------------------|
    E|-2-----------------------|
    
    
    ESTROFA:
    SOL         RE
    Tú puedes reír,
    
  • Tablatura
    Hola a todos, aqui tienen el solo de esta cancion, espero la
    la disfruten. Los acordes los pueden sacar de la otra version
    que está aqui en LaCuerda.
    Cualquier duda o corrección la pueden mandar a mi correo.
    
    
    SOLO minuto 2:41
    e-----------------------------------------------------
    B-----10b-10b~---10b-10b-10b---10-8-10----------------
    G-7h9----------------------------------7~-------------
    D-----------------------------------------------------
    A-----------------------------------------------------
    E-----------------------------------------------------
    
    e------------------12-10----10b12-10------------------
    B-----8-10b12---12-------12------------10b-10b-10b----
    G-7-9-------------------------------------------------
    D-----------------------------------------------------
    A-----------------------------------------------------
    E-----------------------------------------------------
    
    e-----------------------------------------------------
    B-10-8-10b12---10-8-10b12-----------------------------
  • Tablatura
       G            D               A              C
    E----------|  --------|       --------|        --------|[
    a---3------|  -0------|       -0------|        --3-----|[
    d-----0----|  ---0----|       ---2----|        ----2---|[
    g------0---|  ----2---|       ----2---|        -----0--|[
    b-------3--|  -----3--|       -----1--|        ------1-|[
    e-------3--|  -----2--|       -----0--|        ------0-|[
     Tu,     puedes reir,  mientras yo    lloro por ti
    
     G                D              A       C
    E----------|   --------|     --------|--------|[
    a---3------|   -0------|     -0------|--3-----|[
    d-----0----|   ---0----|     ---2----|----2---|[
    g------0---|   ----2---|     ----2---|-----0--|[
    b-------3--|   -----3--|     -----1--|------1-|[
    e-------3--|   -----2--|     -----0--|------0-|[
    Tú,     vas por ahí, Mientras yo no me
                         levanto harto de   extrañarte tanto, tanto.
    (aqui entra la bateria)
    
    
  • Tab p/Bajo
    Tu puedes reir
    mientras yo lloro por ti
    tu vas por ahi
    mientras yo no me levanto
    arto de extrañarte tanto tanto
    
    
    Tu vives sin mi
    mientras yo muero por ti
    y tu puedes segui
    mientras yo no me la acabo
    me dejaste solo y destrozado
    
    |-----------------------------------------------|
    |-----------------------------------------------|
    |-----------5--55----0--00----3--33--3----------|
    |----3--33--------------------------------------|
    
    
    |-----------------------------------------------|
    |-----------------------------------------------|
    |-----------5--55----0--00----3--33--3----------|
    |----3--33----------------------------0-3-0-----|
    
    
    Me tengo que acostumbrar
    
    |-----------------------------------------------|
    |-----------------------------------------------|
    |--------------5---5-5-5-5-----3-3-3-3----------|
    |----0-0-0-0-0-------------3-3------------------|
    
    a un mundo donde no estas
    |-----------------------------------------------|
    |-----------------------------------------------|
    |-----------
  • Batería
     Cr-Crash
     Hh-Hithat
     Rd-Ride
     T1-Tomb 1
     Ta-Tarola
     Tp-Tomb de Piso
     Bo-Bombo
    
       (-------x8-------)                (-------x3-------)
     Cr|----------------|x---------------|----------------|x---------------|
     Hh|----------------|--x-x-x-x-x-x-x-|x-x-x-x-x-x-x-x-|--x-x-x-x-x-x-x-|
     Ta|----------------|----o-------o---|----o-------o---|----o-------o---|
     Bo|----------------|o-------o-o-----|o-------o-o-----|o-------o-o-----|
       (1 + 2 + 3 + 4 + |1 + 2 + 3 + 4 + |1 + 2 + 3 + 4 + |1 + 2 + 3 + 4 + )
    
       (-------x2-------)
     Cr|----------------|----------------|x---------------|----------------|
     Hh|x-x-x-x-x-x-x-x-|x-x-x-x-x-------|----------------|----------------|
     Rd|----------------|----------------|--x-x-x-x-x-x-x-|x-x-x-x-x-x-x-x-|
     T1|----------------|------------oo--|----------------|----------------|
     Ta|----o-------o---|----o-----oo----|----o-------o---|----o-------o---|
     Tp|----------------|--------------oo|----------------|----------------|
     Bo|o-------o-o-----|o-------o-------|
  • +
    ¡Colabora con nosotros!
    Envíanos tu versión de esta canción

Letra de No hay otra manera
tu puedes reir
mientra yo lloro por ti
tu vas por ahi
mientras yo no me levanto
harto de extrañarte tanto tanto
tu vives sin mi
mientras yo muero por ti
y tu puedes seguir
mientras yo no me la acabo
me dejaste solo y destrozado
PRE-CORO
me tengo que acostumbrar
a un mundo, donde no estaaaaas
sin ti debo seguir aunque no quiera
creo que ya no hay otra manera
sin ti debo seguir aunque seas tu la vida entera
creo que ya no hay otra manera
VERSO
tu puedes pensar
mientras yo no entiendo mas
y tu puedes gritar
mientras yo no tengo fuerza
me mal viajo y sueño que regreas
PRE-CORO
Dedico esta cancion a Judith mpch
Si mi delito es Rockear( me declaro culpable). Ferilio



© LaCuerda.net · aviso legal · privacidad · contacto