Acordes de Guitarra » M »Moderatto » No podrás (Tab)

No podrás
Moderatto

Letras, Acordes y Tabs para Guitarra, Bajo y Ukulele

  •     E5  A5  A5  D5  D5  G5  C5  A#5  F#5
    e|---------------------------------------
    B|--------------2------------------------
    G|------2-------2---7-------5------------
    D|--2---2---7---0---7---5---5----8----4--
    A|--2---0---7-------5---5---3----8----4--
    E|--0-------5-----------3--------6----2--
    
    
    E5 - A5 - D5 - G5 - C5 - A5
    A5 - A#5 - G5 - E5
    
    
    E5            A5      D5
    Tal vez te olvides de mí
                 G5      C5     A5    A5-A#5-G5-E5
    tal vez me olvide de ti, Oh no¡¡
    
    
    E5        A5       D5
    
  •     E5   A5G5   C5   A5       A#8  A5  G5  E5
    E---0----5-----0----3-3-------5-----5---6---5---3---0-----
    A---2----7-----0----5-5--3----7-----7---8---7---5---2-----
    D---2----7-----0----5-5--5----7-----7---8---7---5---2-----
    G------------------------5--------------------------------
    B---------------------------------------------------------
    e---------------------------------------------------------
    E5 - A5 - Eª - G5 - C5 - A5
    A5 - A#5 - A5 - G5 - E5
    
    E5            A5      Eª
    Tal vez te olvides de mí
                 G5      C5     A5    A5-A#5-A5-G5-E5
    tal vez me olvide de ti, Oh no¡¡
    
    E5        A5       Eª
    Pero esta vez aprendí
               G5     C5      A5    A5-A#5-G5-E5
    que no se debe mentir, Oh no¡¡
    
    
  • e|----------------------------------------------------
    b|----------------------------------------------------
    g|----------------5-----------------------------------
    D|-2--7-7-0---5-5-5---7--7-8-7-5-2--------------------
    A|-2--7-7-0---5-5-3---7--7-8-7-5-2--------------------
    E|-0--5-5-----3-3-----5--5-6-5-3-0--------------------
    
    e|----------------------------------------------------
    b|----------------------------------------------------
    g|-------------5--------------------------------------
    D|-7-7-0---5-5-5---7--7-8-7-5-2-----------------------
    A|-7-7-0---5-5-3---7--7-8-7-5-2-----------------------
    E|-5-5-----3-3-----5--5-6-5-3-0-----------------------
    
    e|----------------------------------------------------
    b|----------------------------------------------------
    g|-------------5--------------------------------------
    D|-7-7-0---5-5-5---7--7-8-7-5-2-----------------------
    A|-7-7-0---5-5-3---7--7-8-7-5-2-----------------------
    E|-5-5-----3-3-----5--5-6-5-3-0-----------------------
    
  • Entras despues de la guitarra
    Intro x2
    G|--------------------------------------------------------------|
    D|--------------------------------------------------------------|
    A|---------5-555-----3-3333333----------------------------------|
    D|0000-555-------333-----------5-5555h6p5-3---------------------|
    
    Verso x2
    G|--------------------------------------------------------------|
    D|--------------------------------------------------------------|
    A|---------55555-----333333333----------------------------------|
    D|0000-555------333------------555555h6p5-3---------------------|
    
    G|--------------------------------------------------------------|
    D|--------------------------------------------------------------|
    A|---------55555-----333333333----------------------------------|
    D|0000-555-------333-----------55555555-------------------------|
    
    Puente
    G|--------------------------------------------------------------|
    D|--------------------------------------------------------------|
    A|---1-1-----1-1--
  • A|7-7-5-5-3-3333333333333332222222-|   (x2)
    E|---------------------------------| /
    B|---------------------------------|-
    
    G|-------------------------|
    D|-------------------------|
    A|7-7-5-5-3-3333335-555555-|
    E|-------------------------|
    B|-------------------------|
    
    Puente
    G|----------------------------------|
    D|----------------------------------|
    A|---1-1-----1-1-----1-1-----1-1----|
    E|3-3-3-313-3-3-313-3-3-313-3-3-31--|
    B|----------------------------------|
    
    Solo Guitarra
    G|-----------------------------------|
    D|-----------------------------------|
    
  • +
    ¡Colabora con nosotros!
    Envíanos tu versión de esta canción

Letra de No podrás
Tal vez te olvides de mí
tal vez me olvide de ti, Oh no¡¡
Pero esta vez aprendí
que no se debe mentir, Oh no¡¡
De una promesa viví,
yo ya no quiero seguir creyendo en ti
Cada momento
voy tropezando en desamor
es que no queda
nada entre tu y yo
Si estoy llorando
no es que te extrañe el corazón
es que a tu lado
aprendí el dolor
No podrás olvidar
que te ame
como yo nunca imagine
estaré con Luis Miguel
cada momento donde estes
siempre habrá un lugar
algún recuerdo que será
un eterno suspirar




[No podrás chords][No podrás cifra]
© LaCuerda.net · aviso legal · privacidad · es · en · pt · contacto