Acordes de Guitarra » M »Moderatto » 3,6,5 invierno total (Tab)

3,6,5 invierno total
Moderatto

Letras, Acordes y Tabs para Guitarra, Bajo y Ukulele

  • G5-F#5-E5
       E5-F5-A5
    **ESTA PERTE PIKEA LOS RESPECTIVOS VAJOS DE CADA NOTA**
    EJ.
        G5
    E-----X------------------------------------------------
    A-55555--555-55-5---333-333-333-33-333-222-------------
    D-55555--333-55-5/7-333-232-333-33-232-000-------------
    G------------------------------------------------------
    B------------------------------------------------------
    e------------------------------------------------------
    
    E------------------------------------------------------
    A-2/7-7777-777-7-77-7777-777---------------------------
    D-0/7-7777-555-7-97-5557-575---------------------------
    G------------------------------------------------------
    B------------------------------------------------------
    e------------------------------------------------------
    G5                       F#5-E5
    Noche buena te di mi corazón
    
  • E------------------------------------------------------
    A------------------------------------------------------
    D-9999999-777-97-11-7---6-7-6-7-6-7--7-6-7-6-4-11-11-11
    G------------------------------------------------------
    B------------------------------------------------------
    e------------------------------------------------------
    
    E--------------------------------------------------
    A------------------------------------------------5-
    D--11-11-9-9-9----11-12-11-9-----6-7-6-7-6-7-7-6---
    G--------------------------------------------------
    B--------------------------------------------------
    e--------------------------------------------------
    A MAYOR
    Noche buena te di mi corazón
    F#m
    al dia siguiente todo se terminó
    D
    este año ya no sufriré mas
        Em
    
  • +
    ¡Colabora con nosotros!
    Envíanos tu versión de esta canción

Letra de 3,6,5 invierno total
**ESTA PERTE PIKEA LOS RESPECTIVOS VAJOS DE CADA NOTA**
EJ.
Noche buena te di mi corazón
al dia siguiente todo se terminó
este año ya no sufriré mas
se lo daré a alguien muy especial
3 6 5 de invierno total
pensando en ti me la paso fatal
y en medicina fue el rock n' roll
y sobra con quien me salve oh
En la navidad
Lunes, no hay nada que hacer
Martes, sube el calor de tu piel
MiercolesS al cine otra vez
el Jueves salgo a buscarte
Viernes, concierto de rock
Sabado, mas reventón
Domingo, todo vuelve a empezar
te extraño en esta navidad
En la navidad
En la navidad ah ah ah
***PIKEO AVIERTO***
***DE AKI EN ADELANTE ES IGUAL AL PRINCIPIO***
3 6 5 de invierno total
pensando en ti me la paso fatal
y en medicina fue el rock n' roll
y sobra con quien me salve oh
3 6 5 de invierno total
pensando en ti me la paso fatal
este año ya no sufriré mas
eres cosa del pasado oh
***PIKEO AVIERTO***
Uh uh uh uh
Oh oh oh oh
Uh uh uh oh
Oh oh oh uh
Uuuh
Oh oh oh oh
ps esto es todo y de nuevo ya saben k
kualkier duda,aclaracion ,invitacion a comer,
acordes,amenaza de muerte,correccion,fotografias,
fotografias de sus hermanas en tanga,tablaturas,
etc.
no duden en enviarmela:
rocko_k2@hotmail.com
para ti yessica donde kiera k estes.!!
el rock es cultura!!!hauu




[3,6,5 invierno total chords][3,6,5 invierno total cifra]
© LaCuerda.net · aviso legal · privacidad · es · en · pt · contacto