Acordes de Guitarra » M »Miguel y Miguel » Sabor De EngaÑo (Tab)

Sabor De EngaÑo
Miguel y Miguel

Letras, Acordes y Tabs para Guitarra, Bajo y Ukulele

  • D
    SABOR DE ENGAÑO TIENEN TUS OJOS
                A7
    CUANDO ME MIRAS
                Em                A7
    SABOR DE ENGAÑO TIENEN TUS LABIOS
                 D
    CUANDO ME BESAS.
    
    NO ERES SICERA CUANDO ME DICES
                   A7
    QUE AUN ME QUIERES
                  Em                 A7
    QUE EN TUS PALABRAS SE NOTA EL FILO
              D
    DE LA TRAICION.
    
    ES IMPOSIBLE SEGUIR FINGUIENDO
               A7
    DE ESTA MANERA
    
  • e|-12-11-9--7-7-7--7-7--4-5-7--5-5-5--5-5--2-4-5--4--|
    B|-14-12-10-9-9-9--9-9--5-7-9--7-7-7--7-7--4-5-7--5--|
    G|----------------------------------------------------|
    D|----------------------------------------------------|
    A|----------------------------------------------------|
    E|----------------------------------------------------|
    
    e|--------------------|
    B|-5-4----------------|
    G|-6-4--6-4-----------|
    D|----------7-6-4-----|
    A|----------------7---|
    E|--------------------|
    
                E
    sabor de engaño, tienen tus ojos
                B7
    cuando me miras
                F#m                B7
    sabor de engaño siento en tus labios
    
  • +
    ¡Colabora con nosotros!
    Envíanos tu versión de esta canción

Letra de Sabor De EngaÑo
SABOR DE ENGAÑO TIENEN TUS OJOS
CUANDO ME MIRAS
SABOR DE ENGAÑO TIENEN TUS LABIOS
CUANDO ME BESAS.
NO ERES SICERA CUANDO ME DICES
QUE AUN ME QUIERES
QUE EN TUS PALABRAS SE NOTA EL FILO
DE LA TRAICION.
ES IMPOSIBLE SEGUIR FINGUIENDO
DE ESTA MANERA
YOO TE AGRADESCO CON TODA EL ALMA
TU NOBLE EMPEÑO.
Y TE PROMETO SENTIRME FUERTE
CUANDO ME DIGAS
QUE NO ME AMAS, QUE ES PARA OTRO
TU CORAZON.




[Sabor De EngaÑo chords][Sabor De EngaÑo cifra]
© LaCuerda.net · aviso legal · privacidad · es · en · pt · contacto
DINAMICO