Acordes de Guitarra » M »Miguel Morales » Mi Diosa Humana (Tab)

Mi Diosa Humana
Miguel Morales

Letras, Acordes y Tabs para Guitarra, Bajo y Ukulele

  •       LA                         RE
    Te metiste en mi corazon y en mi alma tu nombre grabe
            MI                               LA 
    lo mas lindo que brinda el amor lo sueño contigo
           LA                           RE 
    Es hermoso escuchar tu voz y un hechizo el tono de tu
                MI                               LA
    piel no me dejes con esta ilusion de darte cariño
             MI
    Eres la reina mas linda que ha creado mi Dios y yo
          LA
    he sentido el encanto que halle en tu mirar
              MI
    Mi reina linda a mi mundo le falta tu sol
              LA
    como esos ojos color miel me haces suspiar
    FA#m                     DO#m  
    yo quiero habitar en ese mundo que vives tu
    RE                     FA#m
    dejame soñar con el embrujo de tu sonrisa
    
  • e-0-0-0--2-2-2--4-4-4/5----4/5-4--222-----------2-5-4--222-2-0-2-2/4--º
    B-2-2-2--3-3-3--5-5-5/7---------------3-2h3-222-----------------------º
    G---------------------------------------------------------------------º
    D---------------------------------------------------------------------º
    A---------------------------------------------------------------------º
    E---------------------------------------------------------------------º
    
    Esta es la parte rapida
    
    e-4-(444-4-5-7-5-4---------------4-2-0-2-2/4-4/5-5-------------------
    B------------------777-5-4-------------------------5--3-2h3-----------
    G--------------------------4)-----------------------------------------º
    D---------------------------------------------------------------------º
    A---------------------------------------------------------------------º
    E---------------------------------------------------------------------º
    
    
    
          A               A7         D
    Te metiste en mi corazon y en mi alma tu nombre grabe
    
  • e ---1--1--1--2--2--2--3--3--3--4----------------------
    B ---2--2--2--4--4--4--5--5--5--6----------------------
    G -----------------------------------------------------
    D -----------------------------------------------------
    A -----------------------------------------------------
    E -----------------------------------------------------
    
    e ---2/5--4--2---------------2--5--4h5--2--0--2--2/4---
    B --------------3--2h3----2----------------------------
    G -----------------------------------------------------
    D -----------------------------------------------------
    A -----------------------------------------------------
    E -----------------------------------------------------
    
    e ---4-4-4-5-7-5-4------------|--2-----------2---------
    B -----------------7-5--------|--3--5--3--5--3---------
    G ---------------------7-6-4--|-----6--4--6------------
    D ----------------------------|------------------------
    A ----------------------------|------------------------
    E ----------------------------|------------------------
    
  • +
    ¡Colabora con nosotros!
    Envíanos tu versión de esta canción

Letra de Mi Diosa Humana
Te metiste en mi corazon y en mi alma tu nombre grabe
lo mas lindo que brinda el amor lo sueño contigo
Es hermoso escuchar tu voz y un hechizo el tono de tu
piel no me dejes con esta ilusion de darte cariño
Eres la reina mas linda que ha creado mi Dios y yo
he sentido el encanto que halle en tu mirar
Mi reina linda a mi mundo le falta tu sol
como esos ojos color miel me haces suspiar
yo quiero habitar en ese mundo que vives tu
dejame soñar con el embrujo de tu sonrisa
LLeno de ansisedad quiero explorar ese cielo azul
de tu intimidad mi Diosa humana mi reina linda
Mi Diosa humana mi garn amor mis sentimiento solo
es de ti dueña de mia alma y la ilusion que me domina
me hace feliz, dueña de mi alma y la ilusion
que me domina
II
En el mundo que hice para ti hay un templo que yo hice
en tu honor de rodillas me puse a pedir tu amor en mi
ruego
Infinito el deseo que hay en mi me conviretes en tu
adorador tu me faltas para ser a feliz te invito a
querernos
Las ilusiones de mi alma que hoy me hacen soñar
me van dejando sus huellas en mi corazon
Es imposible olvidarte si en mi vida estas como en los
mares sus aguas y en los dias del sol
Yo quiero habitar en ese mundo que vives tu
dejame soñar con el embrujo de tu sonrisa
LLeno de ansisedad quiero explorar ese cielo azul
de tu intimidad mi Diosa humana mi reina linda
Mi Diosa humana mi garn amor mis sentimiento solo
es de ti dueña de mia alma y la ilusion que me domina
me hace feliz, dueña de mia alma y la ilusion
que me domina me hace feliz
Mi Diosa humana (mi gran amor)
mi reina linda (solo es de ti)
dueña de mi alma (esta ilusion)
que me domina (me hace feliz)
mi diosa humana (mi gran amor)
mi sentimiento (solo es de ti)
dueña de mi alma..




[Mi Diosa Humana chords][Mi Diosa Humana cifra]
© LaCuerda.net · aviso legal · privacidad · es · en · pt · contacto