Acordes de Guitarra » M »Miguel Bosé » Solo pienso en ti (Tab)

Solo pienso en ti
Miguel Bosé

Letras, Acordes y Tabs para Guitarra, Bajo y Ukulele

  • --------------------------------------------------
    Intro: G F#m(+5) Em Em7 C D G F#m(+5) Em Em7 C D G
    --------------------------------------------------
    
    [G]           G    C           G    F#m(+5)
    Me pongo a pintarte y no lo consigo.
    
                   Em           C                D
    Despues de estudiarte lentamente termino pensando
    
        G     C           G   F#m(+5)
    Que faltan sobre mi paleta
    
              Em            C           D
    Colores intensos que reflejen tu rara belleza.
    
       C    D             G   Em             C   D7
    No puedo captar tu sonrisa, plasmar tu mirada,
    
                G   C              G   D              Em
    
  •     G             C          D             C          D
    E ----7-----7------8-----8----10-----10----8-----8----7-----7--
    B ------8-----8------5-----------7-----------5----------8------ 
    G --7-----7------5-----5----7------7-----5-----5----7-----7----
    D --9------------5----------7------------5----------9----------
    A ------------------------------------------------------------- 
    E -------------------------------------------------------------
    
        D             Em        C          G              D
    E ----5-----5----3-----3----3-----3----7-----7----5-----5--|
    B ------7----------5------------5--------8----------7------|
    G --7-----7----4-----4----5---5------7-----7----7-----7----|
    D --7----------5----------5----------9----------7----------|
    A ---------------------------------------------------------|
    E ---------------------------------------------------------|
    
    
    
                G    C            G   D
    Me pongo a pintarte y no lo consigo
    
  • D  000232
    A  577655
    G  355433
    Bm X24432
    
    INTRO
    D - G - A - G
    D - A - Bm - G - D - A - D - G
    D - A - Bm - G - D - A - D - A
    
        D            G             A            G             D            A
    E ----2-----2------3-----3-------5-----5------3-----3-------2-----2----0--/
    B ------3-----3------0-----0-------2-----2------0-----0-------3-----3--2--/
    G --2-----2------0-----0-----3-2-----2------0-----0-----3-2-----2------2--/
    D --0------------0-------------2------------0-------------0------------2--/
    A ------------------------------------------------------------------------/
    E ------------------------------------------------------------------------/
    
           Bm           G
    E -------------------------/
    
  • +
    ¡Colabora con nosotros!
    Envíanos tu versión de esta canción

Letra de Solo pienso en ti
Me pongo a pintarte y no lo consigo.
Despues de estudiarte lentamente termino pensando
Que faltan sobre mi paleta
Colores intensos que reflejen tu rara belleza.
No puedo captar tu sonrisa, plasmar tu mirada,
Pero poco a poco, solo pienso en ti, solo pienso en ti,
Tu sigues viniendo y sigues posando.
Con mucha paciencia porque siempre mi lienzo esta en blanco.
Las horas se pasan volando
Y el poco trabajo adelantado para tu retrato.
Sospecho que no tienes prisa
Y que te complace ver que poco a poco




[Solo pienso en ti chords][Solo pienso en ti cifra]
© LaCuerda.net · aviso legal · privacidad · es · en · pt · contacto