Acordes de Guitarra » M »Miguel Bosé » Amiga (Tab)

Amiga
Miguel Bosé

Letras, Acordes y Tabs para Guitarra, Bajo y Ukulele

  • INTRO [Bm, A, G, D (2)]
          Bm      
          Ahora que te busco y
                     A
          tu no estas, recuerdo
                Bm
          que solo la tristeza
                      A
          quiere hablar conmigo.
    
          G
          Ahora que la lluvia 
                A
          se ha llevado el
          F#
          ultimo jiron de
          Bm
          tu vestido
    
          G
    
  • Bm          F#        G     D
    110-112-114-19…112… 212-210-21-27
    49-411-412… 411… 410- 49-47-37    (x2)
    
    
     Bm                                  F#m
    Ahora que te busco y tú no estás, recuerdo,
        Bm                                 A
    que solo la tristeza quiere hablar, conmigo,
      G                          A
    ahora que la lluvia se ha llevado,
        D       F#7          Bm
    el último girón de tu vestido,
      G                       Em
    ahora que olvidado lo que soy,
       A                            A7
    recuerdo en el pasado lo que he sido . . .
    
           D
    Si he sido lo que fuí, fue por tu cuerpo,
    
  •   Bm            A                    G       D
    e-10------12-14-9-----9--12----------7-----------------------------
    B------7-----------10-10-10------10------8--10-8--7----------------
    G----7-------------9----------9--9-----7-------------6/7-6-5-------
    D------------------------------------------------------------7-----
    A---------------12-------------------7------9--7--5--9---9-7-5-9---
    E-7-------10-12--------------------------------------7---7---5-7---
    
      Bm            A                    G       D
    e-10------12-14-9-----9--12----------7---------------------9-------
    B------7-----------10-10-10------10------8--10-8--7------7---------
    G----7-------------9----------9--9-----7---------------7-----------
    D------------------------------------------------------------------
    A---------------12-------------------7------9--7--5----------------
    E-7-------10-12--------------------------------------7-------------
    
    
     Bm                                  A
    Ahora que te busco y tu no estas, recuerdo
        Bm                                A
    
  •    Bm        A          G  F#m  Em  Bm  Bm      A          G          Bm
    E -10--------9---10--9--7---5---3---2--------2------------------------2--II
    B -12-12-13-10---10-10--8---7---5---3----3-5----2----3--2--0-------------II
    G -10-12-12--9-9--------7---6---4---4----4------2-------2--0--2--0-------II
    D -12-------------------9---7---5------------------2----0-----4--2--4----II
    A -----------0----------------------2----2------0-------------------2----II
    E ------------------------------0--------------------------3-----0-------II
    
    Bm                                    A
    Ahora que te busco y tu no estás, recuerdo
         Bm                               A
    que solo la tristeza quiere hablar conmigo
       G                          A7
    ahora que la lluvia se ha llevado 
           D    F#7           Bm
    el último girón de tu vestido
        G                      A7
    ahora que olvidado lo que soy
        Em                            A7
    recuerdo en el pasado lo que he sido . . .
    
  •    Bm              F#          G                        Bm
    E -10----12---14---------12----7----5----3----2---------2-I
    B -----------------10----10-------------------3---3-2---2-I
    G -------------------11--11-------------------4---4-2---4-I X2
    D -------11---12---------------5----4----2------------4-4-I
    A -----------------9-----9--------------------9-------4---I
    E -7------------------------------------------------------I
    
    
    Bm                                   F#m 
    Ahora que te busco y tu no estás, recuerdo
         Bm                               A
    que solo la tristeza quiere hablar conmigo
       G                          A7
    ahora que la lluvia se ha llevado 
           D    F#7           Bm
    el último girón de tu vestido
        G                      Em
    ahora que olvidado lo que soy
        A                            A7
    
  • E-------------0-----------------------0--------------I
    B-------0-----------0-----------0-----------0--------I
    G----0-----0-----0-----0-----0-----0-----0-----0-----I
    D----------------------------------------------------I
    A-0-----------------------0--------------------------I
    E----------------------------------------------------I
    
    requinto:
    
    
     Bm(Em)              A(D)                G(C)              D(G)
    
    E-10-----12----14----9----12--------------------------------------------------I
    B---7------7-----7----7------7----12-----10-----8----7------------------------I
    G----7-----------------7----7-7-----7------7-----7----7----7----7-------------I
    D-9------11----12----7----11---------7------7----------7---7/9--7--7--7-------I
    A---------------------------------10-----9------7------------------9--7--9----I
    E----------------------------------------------------10------------------10---I
    
    
    
  • +
    ¡Colabora con nosotros!
    Envíanos tu versión de esta canción
  • Tutorial
    HD
    Como tocar AMIGA de Miguel Bose en Guitarra
    2:13

Letra de Amiga
Ahora que te busco y
tu no estas, recuerdo
que solo la tristeza
quiere hablar conmigo.
Ahora que la lluvia
se ha llevado el
ultimo jiron de
tu vestido
Ahora que he olvidado
lo que soy, recuerdo

en el pasado lo que
he sido.
Si he sido lo que fui
fue por tu cuerpo
Si he sido noche
fue tu noche quien lo quiso
Si he sido beso
es que mis labios aprendieron
a ser beso para ti
Si he sido lo que soy fue en
tu regazo,
Si he sido vida
fue por darte a ti la vida
Amiga, Amiga
Que dulce esa palabra
suena hoy.
El tiempo no fue tiempo

entre nosotros
Estando juntos nos
sentimos infinitos
y el universo era
pequeño comparado
con lo que eramos tu y yo
Si fuiste lo que fuiste
fue en mi casa que para
ti fue tu palacio y tu
guarida.
Amiga, Amiga.
Que dulce esa palabra
y que sencilla esa
palabra suena hoy
No hay noche mas obscura
que estanoche y el frio
se va depositando
en los rincones del alma.
Y ahora que el silencio
va borrando la suave
vibracion de tus palabras.
Ahora que no son
la espera es nada
recuerdo lo que fui
cuando no estabas
Me despido, ojala les pueda volver a enviar otra cancion pronto.
Atte.
Antonio Daniel Mendez Poceros




[Amiga chords][Amiga cifra]
© LaCuerda.net · aviso legal · privacidad · es · en · pt · contacto