Acordes de Guitarra » M »Miguel Bosé » Si puedo volverte a ver (Tab)

Si puedo volverte a ver
Miguel Bosé

Letras, Acordes y Tabs para Guitarra, Bajo y Ukulele

  • e|---------0-----------0-----------0----|
    B|-------7---7-------5---5-------3---3--|
    G|-----7-------7---6-------6---4-------4|
    D|---0-----------0-----------0----------|
    A|--------------------------------------|
    E|--------------------------------------|
    
    e|---------0-----------0-----------3----|
    B|-------7---7-------5---5-------3---3--|
    G|-----7-------7---6-------6---4-------4|
    D|---0-----------0-----------0----------|
    A|--------------------------------------|
    E|--------------------------------------|
    
    e|---------0-----------0-----------5----|
    B|-------7---7-------5---5-------3---3--|
    G|-----7-------7---6-------6---4-------4|
    D|---0-----------0-----------0----------|
    A|--------------------------------------|
    E|--------------------------------------|
    
  • -------0--------0--------0-------
    ------7-7------5-5------3-3------
    -----7---7----6---6----4---4-----
    ---0---------0--------0----------
    ---------------------------------
    ---------------------------------
    
    
    -------0--------0--------1-------
    ------7-7------5-5------3--------
    -----7---7----6---6----4---------
    ---0---------0--------0----------
    ---------------------------------
    ---------------------------------
    
    
    -------0--------0--------5-------
    ------7-7------5-5------3--------
    -----7---7----6---6----4---------
    ---0---------0--------0----------
    
  • +
    ¡Colabora con nosotros!
    Envíanos tu versión de esta canción

Letra de Si puedo volverte a ver
En cuanto puede se me escapa
y de momento lo que ha sido... fue
en esta ausencia que respiro
hay algo mas... y otras muchas por llover.
¿como aprender a estar perdido?
¿como empezar a echar de menos
cuando estreno el corazón?
Y si es mi suerte que sea fuerte
que me queme todo entero y de una vez
Y cuando quieras te lo escribo,
sin un descanso mientras que hay una pared
en pleno cielo y por si acaso en el olvido
que me aguanto lo que muero
VERSO 2:
En cuanto puede se me escapa
Del aire cuelgan mis suspiros... y es
asi de simple, asi de grande
es algo que...no consigo no querer
Y no me cabe mas paciencia
estoy cansado de morderme el corazón, no puedo mas
si es el destino que me rompe a estas alturas,
que me parta de una vez
Y cuando quieras te lo escribo,
sin un descanso mientras que hay una pared
en pleno cielo y por si acaso en el olvido
que me aguanto lo que muero
Si puedo volverte a ver
...En cada mirada se me va
cada abrazo un laberinto que...nunca desharé
cada silencio, eternidad
en cada noche hay un secreto que me da
Y cuando quieras te lo escribo,
sin un descanso mientras que hay una pared
en pleno cielo y por si acaso en el olvido
que me aguanto lo que muero
Si puedo volverte a ver
Si puedo volverte a ver
Si puedo volverte a ver
Si puedo volverte a ver...




[Si puedo volverte a ver chords][Si puedo volverte a ver cifra]
© LaCuerda.net · aviso legal · privacidad · es · en · pt · contacto
DINAMICO