Acordes de Guitarra » M »Miel San Marcos » Eres mi sanador (Tab)

Eres mi sanador
Miel San Marcos

Letras, Acordes y Tabs para Guitarra, Bajo y Ukulele

  • Intro: C - Am - G - F
    
    Estrofa 1:
    
    C
    Por tus llagas yo soy sano,
    Am                           F
    por tu Sangre yo soy limpio, Dios
    Dm            Am   G
      Eres mi Sanador
    
    Estrofa 2:
    C
    De las cenizas me levantaste
    Am                          F
    De tinieblas me rescataste, Dios.
    Dm          Am     G
      Eres mi Sanador.
    
    
    
  • E|-------------------------------------------------------|
    A|-------------------------------------------------------|
    D|-------------------------------------------------------|
    G|-19--19---------------17-------------------------------|X3
    B|---20--20-17----18-17----------------------------------|
    e|-------------------------------------------------------|
    
    C
    Por tus llagas yo soy sano,
    Am                           F
    por tu Sangre yo soy limpio, Dios
                 G
    Eres mi Sanador
    
    Estrofa 2:
    C
    De las cenizas me levantaste
    Am                          F
    De tinieblas me rescataste, Dios.
                 G
    
  • e|---------------------------------
    B|-----13-----13-----------6p5-----
    G|--12-----10-----9~----7m-----5--- X3
    D|---------------------------------
    A|---------------------------------
    E|---------------------------------
    
    e|--------------------------------------------
    B|-x-5--5----5--------------------------------
    G|-x-5--5----5-------------------------------
    D|-x-5--3----3-------------------------------
    A|-x-3--3----3-------------------------------
    E|--------------------------------------------
    
    
    SOLO
    
    e|---13-13-13-13-13-12~-------------------------
    B|-----------------------13-13s15--------------
    G|--------------------------------------------- X2
    
  • +
    ¡Colabora con nosotros!
    Envíanos tu versión de esta canción

Letra de Eres mi sanador
Estrofa 1:
Por tus llagas yo soy sano,
por tu Sangre yo soy limpio, Dios
Eres mi Sanador
Estrofa 2:
De las cenizas me levantaste
De tinieblas me rescataste, Dios.
Eres mi Sanador.
Pre-Coro:
Por tu muerte tengo vida.
Moraré contigo para siempre.
Eres mi Sanador, mi Libertador
Venciste en esa Cruz, mi victoria está en ti.
Estrofa 2:
De las cenizas me levantaste
De tinieblas me rescataste, Dios.
Eres mi Sanador.
Pre-coro:
Por tu muerte tengo vida.
Moraré contigo para siempre.
Eres mi Sanador, mi Libertador.
Venciste en esa Cruz. Mi victoria está en ti.
Eres mi Sanador, Eres mi Redentor
Ganaste Tú por mí, seguro estoy en Ti.
// Mi confianza está sólo en Ti
Mi confianza está sólo en Ti
Mi confianza está sólo en Ti
Sólo en Ti, mi Sanador. //
Eres mi Sanador, mi Libertador.
Venciste en esa Cruz. Mi victoria está en ti.
Eres mi Sanador, Eres mi Redentor
Ganaste Tú por mí, seguro estoy en Ti.
// Mi confianza está sólo en Ti
Mi confianza está sólo en Ti
Mi confianza está sólo en Ti
Sólo en Ti, mi Sanador. //
*Isaías 53:3-5
Despreciado y desechado entre los hombres,
varón de dolores, experimentado en quebranto;
y como que escondimos de él el rostro, fue menospreciado, y no lo estimamos.
Ciertamente llevó él nuestras enfermedades, y sufrió nuestros dolores;
y nosotros le tuvimos por azotado, por herido de Dios y abatido.
Mas él herido fue por nuestras rebeliones, molido por nuestros pecados;
el castigo de nuestra paz fue sobre él, y por su llaga fuimos nosotros curados.
¡Dios les bendiga mucho!
Cualquier comentario a: sergiolopezacostado@hotmail.com




[Eres mi sanador chords][Eres mi sanador cifra]
© LaCuerda.net · aviso legal · privacidad · es · en · pt · contacto