Acordes de Guitarra » M »Miel San Marcos » Grande y fuerte (Tab)

Grande y fuerte
Miel San Marcos

Letras, Acordes y Tabs para Guitarra, Bajo y Ukulele

  • Acordes:     Am          Fmaj7 Em7    Am7
    Bajo(puntos): AAA EEE D E FFF   EEE CC A
    
     Am      Fmaj7     Em7      Am   Fmaj7  Em7
    Grande y Fuerte es nuestro Dios
     Am      Fmaj7     Em7      Am   Fmaj7  Em7
    Grande y Fuerte es nuestro Dios
     Am      Fmaj7     Em7      Am   Fmaj7  Em7
    Grande y Fuerte es nuestro Dios
     Am      Fmaj7     Em7      Asus4  A/C#
    Grande y Fuerte es nuestro Dios
    
      Dm7            G       Dm7        Am
    Vestido en majestad coronado con poder
          F        G       Am   G/B  A/C#
    Digno de toda la adoracion
      Dm7            G       Dm7        Am
    Vestido en majestad coronado con poder
          F              G       Am - Intro
    Toda gloria y honra sea para ti
    
  • Am Em D-E-F-E-D-Am X4
    Y X2 Con Ritmo
    
    
         Am       F       E           Am
    ///Grande y fuerte es nuestro Dios///
       Am        F         G       Asus4 - A7
       Grande y fuerte es nuestro Dios
    
    
    
        Dm           G
    Vestido en majestad
        Dm             Am
    coronado con poder
            Dm      G         Am-G/B -A7
    Digno De toda la adoración
        Dm             G
    Vestido  en majestad
          Dm         Am
    
  • e|----------------------------------|
    B|----------------------------------|
    G|------9-9-9-7-9-10-10-10-9--------|
    D|7-7-7----------------------10-9-7-|
    A|----------------------------------|
    E|----------------------------------|
    
    El coro se canta una vez en inglés
     y la segunda vez se canta en español.
    
    B|13-13-13-13(x7)-12-12-12-12------------|
    G|----------------------------14-14-14-14|
    
    B|12-12-13-13-13-------------------------|
    G|---------------14-14-14-14-------------|
    
    e|---------------------------------------|
    B|13-13-13-13(x7)-12-12-12-12------------|
    G|----------------------------14-14-14-14|
    
    
  •  Am -F- E-- Am
    
    INTRO
    E)---------------------------------------------
    B)---------------------------------------------
    G)--------9-9-9--7-9-10-10-10-9-9-9------------
    D)--7-7-7----------------------------10-10---7-
    A)---------------------------------------------
    E)---------------------------------------------
    
    la parte donde dice vestido en majestad coronado con poder digno
    de toda la adoraciooon
    vestido en majestad coronado con poder toda gloria y honra sea para ti
    
    E)------------------------------------------------------------------
    B)--13-13-12-12-13-13--------13-13-12-12-13-12-12-13-13-15-15-17-17-
    G)--------------------14-14-----------------------------------------
    D)------------------------------------------------------------------
    A)------------------------------------------------------------------
    E)------------------------------------------------------------------
    
  • *La intro del bajo se toka asi, y en toda la estrofa
    
    *INTRO: X4
    
    A----------7-7-7-5-7-8-8-8-7-7-7----
    E—5-5-5----------------------------8-7-
    
    
    ////Grande  y fuerte es nuestro Dios////
    
    A----------7-7-7-5-7-8-8-8-7-7-7----   X2
    E—5-5-5----------------------------8-7-
    
    Revestido en majestad                      coronado con poder
    
    A—5-5-5-5-5-5-5-5----------------------------------------
    E—-----------------------3-3-3-3-3-3-3-3-1-1-1-1-1-1-1-1—
    
              Digno de toda,           la adoración
    A---------------------------------------------------------
    E—17-17-17-17-17-17-17-17-1-1-1-1-1-1-1-1-3-3-3-3-3-3-3-3-
    
          On…   . On….
    
    A—-----------2-2-2-2-3-3-3-3-4-4-4-4---
    E—5-5-5-5------------------------------
    
    Revestido en majestad                      coronado con poder
    
    A—5-5-5-5-5-5-5-5-----------------------------------------------
    E—-----------------------3-3-3-3-3-3-3-3-1-1-1-1-1-1-1-1—
    
                                     Toda gloria y honra sean para el
    A--------------
  • *La intro del bajo se toka asi, y en toda la estrofa
    
    *INTRO: X4
    
    A----------7-7-7-5-7-8-8-8-7-7-7----
    E—5-5-5----------------------------8-7-
    
    
    ////Grande  y fuerte es nuestro Dios////
    
    A----------7-7-7-5-7-8-8-8-7-7-7----   X2
    E—5-5-5----------------------------8-7-
    
    Revestido en majestad                      coronado con poder
    
    A—---5--3--3--5------------------------5--3--3--5---------------------
    E—--------5------------3-1---1-3-1----------5---------5--3---3--5--3--
    B---------------------------3------------------------------5----------
    
    
               Digno de toda,           la adoración
    A---------------------------------------------------------
    E—17-17-17-17-17-17-17-17-1-1-1-1-1-1-1-1-3-3-3-3-3-3-3-3-
    
          On…   . On….
    
    A—-----------2-2-2-2-3-3-3-3-4-4-4-4---
    E—5-5-5-5------------------------------
    
    
    Revestido en majestad                      coronado con poder
    
    A—---5--3--3--5------------------------5--3--3--5---------------------
    E—--------5------------3-1---1-3-1--
  • +
    ¡Colabora con nosotros!
    Envíanos tu versión de esta canción
  • Tutorial
    HD
    Grande y Fuerte - Dios es Real - Miel San Marcos - Tutorial de Bajo
    8:04
  • Tutorial
    HD
    Grande Y Fuerte Miel San Marcos Bass/Bajo Tutorial
    11:39

Letra de Grande y fuerte
Bajo(puntos): AAA EEE D E FFF EEE CC A
Grande y Fuerte es nuestro Dios
Grande y Fuerte es nuestro Dios
Grande y Fuerte es nuestro Dios
Grande y Fuerte es nuestro Dios
Vestido en majestad coronado con poder
Digno de toda la adoracion
Vestido en majestad coronado con poder
Toda gloria y honra sea para ti
¡¡Grande!! ¡¡Fuerte!!
¡¡Es nuestro Dios!! //
¡¡Grande!! y ¡¡Fuerte!! ¡¡Es nuestro Dios!! ///
¡¡Grande!! y ¡¡Fuerte!! Es nuestro Dios Todos [puntos]




[Grande y fuerte chords][Grande y fuerte cifra]
© LaCuerda.net · aviso legal · privacidad · es · en · pt · contacto