Acordes de Guitarra » M »Mecano » Me Cuesta Tanto Olvidarte (Tab)

Me Cuesta Tanto Olvidarte
Mecano

Letras, Acordes y Tabs para Guitarra, Bajo y Ukulele

  • A E F#m C#m7 D E A
    
    A                      E
     Entre el cielo y el suelo hay algo
    F#m                  C#m7
     con tendencia a quedarse calvo
    D    E          A
     de tanto recordar.
    A                E
     Y ese algo que soy yo mismo
    F#m               C#m7
     es un cuadro de bifrontismo
    D     E           A
     que solo da una faz.
    
    D         C#m7         F#m         E
     La cara vista es un anuncio de signal
    D          C#m7          F#m
     la cara oculta es la resulta
              E              D
    
  •    G           D/F#        Em              Bm            C
    e|-----------|-----------|---------------|---------|-------------|
    B|-0h1-0-----|---0-------|---------------|---------|-----1-1-----|
    G|-0-----0---|-2---2---2-|-----0h2-0-----|---0-----|-----------0-|
    D|---------0-|-------0---|---2---------2-|-4---4---|-0-2-----2---|
    A|-----------|-----------|-----------2---|-2-----2-|---3---------|
    E|-3---------|-2---------|-0-------------|---------|-------------|
    
       D*            G
    e|---------|--------------|---------------|
    B|---3-3---|-0h1-1p0------|-----------0h1-|
    G|---------|---------0----|-------0h2-----|
    D|-4-----4-|-----------0~-|-0h2h4---------|
    A|-5-------|--------------|---------------|
    E|---------|-----3--------|---------------|
    
    
    G                     D/F#            Em
      Entre el cielo y el suelo hay algo
                       Em/D  <-- Bajo en la cuarta cuerda
    
  • Mi cuarta colaboración, es lo mas que pude hacer
    Estos son los arreglos de la canción, deben escucharla para 
    ubicarlos, están lo más exactos posible
    
    Esta es la parte principal de las estrofas
    E|-9-10-9---7-9-7---------------------------10-10--------12-12-|
    B|------------------10-12-10----9-10-9-------------------------|
    G|---------------------------11---------9-11--------11-13------|
    
    Estas partes se tocan después de la principal:
    -Durante el Intro-
    E|-----10-10-9----------------------10-|
    B|-12----------12-----------9-10-12----|
    G|----------------9---9-11-------------|
    
    -1ra/2da Estrofa-
    E|---------10-9------------9----|
    B|---10-12------12-10-9-12---12-|
    G|-9----------------------------|
    
    -3ra vez (Parte instrumental)-
    E|----10-10-9----10-9------|---------|
    B|-12---------12------12---|---------|
    G|-----------------------9-|-9-9/6-6-|
    
    -Cuando va a cambiar al estribillo (1ra estrofa)-
    B|------9-10---9-10-12---|
    G|-9-11----------------9-|
    
    ...de Signa
  • Esta es la introducción de la canción (tambien la mando para piano)
    
    e|-9-10-9--7-9-7---------------------------10-10--------12-12--
    B|----------------10-12-10----9-10-9---------------------------
    G|-------------------------11---------9-11--------11-13--------
    D|-------------------------------------------------------------
    A|-------------------------------------------------------------
    E|-------------------------------------------------------------
    
    e-----10-10-9-----------------7-10-|
    B-12----------12---------9-10------|
    G----------------9--9-11-----------|
    D----------------------------------|
    A----------------------------------|
    E----------------------------------|
    
    Nota: La introducción esta en base a la notas de la original, 
    es decir esta en la escala de A.
  • -----------------------------------------------------------
    La canción original está en A. Para tocar la parte del piano
    junto con bajos les recomiendo poner el capo en el segundo traste...
    
    
    CAPO: 2
    
       G           D/F#        Em              Bm            C
    e|-----------|-----------|---------------|---------|---------------|
    B|-0h1-0-----|---0-------|---------------|---------|-----1-1-------|
    G|-0-----0---|-2---2---2-|-----0h2-0-----|---0-----|-------------0-|
    D|---------0-|-------0---|---2---------2-|-4---4---|-0-2------2----|
    A|-----------|-----------|-----------2---|-2-----2-|---3-----------|
    E|-3---------|-2---------|-0-------------|---------|---------------|
    
       D*            G
    e|---------|--------------|---------------|
    B|---3-3---|-0h1-1p0------|-----------1---|
    G|---------|---------0----|-------0h2-----|
    D|-4-----4-|-----------0~-|-0h2h4---------|
    
  • +
    ¡Colabora con nosotros!
    Envíanos tu versión de esta canción

Letra de Me Cuesta Tanto Olvidarte
Entre el cielo y el suelo hay algo
con tendencia a quedarse calvo
de tanto recordar.
Y ese algo que soy yo mismo
es un cuadro de bifrontismo
que solo da una faz.
La cara vista es un anuncio de signal
la cara oculta es la resulta
de mi idea genial de echarte.
Me cuesta tanto olvidarte.
Me cuesta tanto...
Olvidarte me cuesta tanto
olvidar quince mil encantos
es mucha sensatez.
Y no se si seré sensato
lo que se es que me cuesta un rato
hacer cosas sin querer.
Y aunque fui yo quien decidió que ya no más.
Y no me canse de jurarte
que no habra segunda parte
me cuesta tanto olvidarte.
Me cuesta tanto olvidarte.
Me cuesta tanto.
Y aunque fui yo quien decidió...




[Me Cuesta Tanto Olvidarte chords][Me Cuesta Tanto Olvidarte cifra]
© LaCuerda.net · aviso legal · privacidad · es · en · pt · contacto