Acordes de Guitarra » M »Masappan » Siempre (Tab)

Siempre
Masappan

  • Tablatura
    e|--------------------||
    B|--------------4-----||
    G|------3-------------||
    D|----2-------2-------||X2
    A|--0-------2---------||
    E|--------------------||
    
    Mientras estoy aqui
    mientras sigo asi
    viiviendo de esta forma
    e|--------------------||
    B|--------------4-----||
    G|------3-------------||
    D|----2-------2-------||X2
    A|--0-------2---------||
    E|--------------------||
    
    
    sin besarte, sin tocarte, sin tu amor
    e|-------------------------2---||
    
  • +
    ¡Colabora con nosotros!
    Envíanos tu versión de esta canción

Letra de Siempre
Mientras estoy aqui
mientras sigo asi
viiviendo de esta forma
sin besarte, sin tocarte, sin tu amor
nada de esto es para siempre
fotografias en mi mente
devanecidas sin color.
mientras estoy aqui
mientras vivo asi
ahogandome dentro
de sentimientos, mis recuerdos y tu amor
aaaaaa aaaaa
nada de esto es para siempre
fotografias en mi mente
devanecidas sin color.
nada de esto es para siempre
fotografias en mi mente
devanecidas sin color.
nada de esto es para siempre
fotografias en mi mente
devanecidas sin color.
aaaaaa aaaaa aaaa
aaaaaa aaaaa aaaa



© LaCuerda.net · aviso legal · privacidad · contacto
DINAMICO