Acordes de Guitarra » M »Masappan » Para Tí (Tab)

Para Tí
Masappan

  • Letra y Acordes
    B          G#m
     me botaste, me rechazaste
    E              F#
    no tenia dinero nunca me pelaste
    B               G#m
    cuando te hablaba nunca mirabas
    E                 F#
    dabas la vuelta e ibas con alguien mas...
    
    PRE-CORO
    E
    eras tan fresa
    F#
    y no podias estar
    E                G#m/F#/G#m   (este “/” son los cambios rapidos)
    con alguien como yo
    
    CORO:
    B             F#
    Y ahora regreso
    
  • Tablatura
    (HOLA LA CUERDA.NET, YA VAN 2 VECES QUE RECHAZAN MI
    TRANSCRIPCIÓN, Y PUES NO ENTIENDO EL PORQUE, YA QUE ESTA MUCHO
    MEJOR QUE LA QUE TIENEN, YA QUE AQUI ESTA COMPLETA Y
    PRACTICAMENTE SIN ERRORES. ESPERO QUE TOMEN EN CUENTA MI
    COMENTARIO Y LA CHEQUEN, POR FAVOR
    GRACIAS)
    
    Muy bn grupo y muy bna canción jeje espero les guste esta muy
    fácil nomas oiganla varias veces =D
    
    Intro
    e|-------------------------------------------|    e|-----
    B|-------------------------------------------|    B|-----
    G|-------------------------------------------| x4 G|-4~--
    D|----4--1--------1-------4--1-------1-------|    D|-4~--
    A|-2--------2--4-------2--------2--4----4----|    A|-2~--
    E|-------------------------------------------|    E|-----
    
    Hay otra guitarra q acompaña asi:
    e|-------------------------------------------|    e|-----
    B|-------------------------------------------|    B|-----
    G|-4-4-4-4-4---------------------------------| x2 G|-4~--
    D|-4-4-4-4-4-6-6-6-6-6-2-2-2-2-2-4-4-4-4-4---|    D|-4~--
    A|-2-2
  • Tab p/Bajo
    aqui les dejo el bajo me da hueva poner cuanto se tiene q hacer
    asi q escuchen la rola y acomoden los cambios
    cualkier duda a mi msn  ralph_skate182@hotmai.com
    
    
    
    
    INTRO
    g|----------------------------------
    d|----------------------------------
    a|---2*----------------------------- x2
    e|--------4*------0*-----2*---------
    
    TERMINA EN
    g|----------------------------------
    d|----------------------------------
    a|-2--------------------------------
    e|----------------------------------
    
    VERSO
    g|----------------------------------
    d|----------------------------------
    a|---2*-----------------------------  x2
    e|---------4*------0*-----2*--------
    
    LUEGO: ''ERAS TAN FRESA Y NO PODIAS...''
    g|----------------------------------
    d|----------------------------------
    a|---------------------------------- x1
    e|--0000--2222--0000--2222-4-4-2----
    
    CORO
    g|----------------------------------
    d|----------------------------------
    a|---2*-----------------------------  x2
    e|----------2*------4*-------0*-----
    
    DE AHI S
  • +
    ¡Colabora con nosotros!
    Envíanos tu versión de esta canción

Letra de Para Tí
me botaste, me rechazaste
no tenia dinero nunca me pelaste
cuando te hablaba nunca mirabas
dabas la vuelta e ibas con alguien mas...
PRE-CORO
eras tan fresa
y no podias estar
con alguien como yo
Y ahora regreso
no soy el mismo
escuchas esto te acuerdas de mi
quieres buscarme, piensas mirarme
puedes hacerlo solo en la television
VERSO:
te sonrojaste
ya te acordaste
serré tu boca
mira lo que soy
te platicaba
tu te burlabas
escuchas esto,esto es para ti...
PRE-CORO:
eras tan fresa
y no podias estar
con alguien como yo
Y ahora regreso
no soy el mismo
escuchas esto y te acuerdas de mi
quieres buscarme, piensas mirarme
puedes hacerlo solo en la television
PRE-CORO:CON EL VOLUMEN MAS BAJO
eras tan fresa
y no podias estar
con alguien como yo
ahora regreso
no soy el mismo
escuchas esto y te acuerdas de mi
quieres buscarme, piensas mirarme
puedes hacerlo solo en la television
ahora regreso
no soy el mismo
escuchas esto y te acuerdas de mi
quieres buscarme, piensas mirarme
puedes hacerlo solo en la television



© LaCuerda.net · aviso legal · privacidad · contacto
DINAMICO