Acordes de Guitarra » M »Masappan » Esperándote (Tab)

Esperándote
Masappan

Letras, Acordes y Tabs para Guitarra, Bajo y Ukulele

  • DO
    Quiero volver pues no crei
                        SOL
    jamas volverte a ver
                                    FA
    y solo el pensar me hace recordar
                           SOL
    en aquellos tiempos ya nada es igual
    
    
    FA       DO            SOL
    Estare aqui esperandote
                 LA              FA
    y sabras que tu volveras a veeeerme
    DO       SOL         LA
    aquiiii aquiii...
    
    no se como explicar esta parte...
    pero si la escuchan sabran como hacerla...
    
    
  • Bueno esta es mi primer aporte a la cuerda.net espero
    que les guste saludos a Scorpiones Black de Nuevo Laredo
    Tamahulipas mi banda jejejeje saludos a Fher,Roger y al
    Lalo y pues aqui esta la rolia de masappan chida
    espero que les guste
    
    
    (((Intro con guitarra)))
    
    
    [00:14]...Y estare aqui esperandote y sabras que tu....
    G-------------------------------
    D-------------------------------
    A---------3-3-3-3-------0-0-0-0-  x2
    E--1-1-1-1-------3-3-3-3--------
    
    [00:28]
    G----------------
    D----------------
    A----------0-----  x4
    E--1-1-1-1---3---
    
    [00:34]
    G-------------------------------
    D-------------------------------
    A---------3-3-3-3-------0-0-0-0-  x1
    E--1-1-1-1-------3-3-3-3--------
    
    [00:41]...Quiero volver es inutil no puedo olvidar....
    G-----------------------
    D-----------------------
    A--3-x8-----------------  x1
    E------3-x8--1-x8--3x8--
    
    [00:55]...Y estare aqui esperandote y sabras que tu....
    G-------------------------------
    D-------------------------------
    A---------3-3-3-3-------0-0-0
  • +
    ¡Colabora con nosotros!
    Envíanos tu versión de esta canción

Letra de Esperándote
Quiero volver pues no crei
jamas volverte a ver
y solo el pensar me hace recordar
en aquellos tiempos ya nada es igual
Estare aqui esperandote
y sabras que tu volveras a veeeerme
aquiiii aquiii...
no se como explicar esta parte...
pero si la escuchan sabran como hacerla...
Quiero volver es inutil no puedo olvidar
me doy cuenta que el tiempo
no va esperar
y al mirar atras ya nada es igual
Estare aqui esperandote
y sabras que tu volveras a veeeerme
aquiiii aquiii...
Esta parte es la del podria decirse "solo"...
Volveras tu tambien recordaraaaas
Volveras tu tambien me estrañaraaaas
Estare aqui esperandote
y sabras que tu volveras a veeeerme
aquiiii aquiii...
Estare aqui esperandote
y sabras que tu volveras a veeeerme
aquiiii aquiii...
i eso es todo ... solo escuchenla i veran que les sale...
Gracias Nos vemos...
JAIMIKELO




[Esperándote chords][Esperándote cifra]
© LaCuerda.net · aviso legal · privacidad · es · en · pt · contacto
DINAMICO