Acordes de Guitarra » M »Masappan » Cicatriz (Tab)

Cicatriz
Masappan

Letras, Acordes y Tabs para Guitarra, Bajo y Ukulele

  • MIm                             LA
    1-12-11---------------------------12-11--------------------------
    2------12-9----------------------------12-9----------------------
    3-----------11-11----------------------------11-11-13-13-13-14-13
    4-----------------11-11-13-13-14---------------------------------
    
    MIm           LA
    1-12-11---------------------------------------
    2------12-9-----------------------------------
    3----------11-11-11---------------------------
    4------------------11-11-11-11-13-13-13-14-14-
    14-16-16-16-14-16-18-18-18-18-16--------------
    
    verso
    quiero encontrarle un sentido
    SIm C#/Dbmenor LA RE x2
    precoro
    ya ceraron mis heridas
    FAm LA x SIm x2
    coro
    
  • +
    ¡Colabora con nosotros!
    Envíanos tu versión de esta canción

Letra de Cicatriz
verso
quiero encontrarle un sentido
precoro
ya ceraron mis heridas
no hay nada (nada)
c#/Dbmenor x sim la x2 x sim c#/Dbmenor
aunque en las noches no duerma
precoro:
c#/Dbmenor la sim x sim x sim x4
x
1-0
2-0
3-9
4-9
5-7
6-7
c#/Dbmenor
1-0
2-0
3-0
4-11
5-11
6-9
q ay les dejo esa rolla aver si les gusta adarga92@hotmail.com
version electrica(recomendable)o como gusten es con bases o normal




[Cicatriz chords][Cicatriz cifra]
© LaCuerda.net · aviso legal · privacidad · es · en · pt · contacto
DINAMICO