Acordes de Guitarra » M »Marea » Corazón de Mimbre (Tab)

Corazón de Mimbre
Marea

Letras, Acordes y Tabs para Guitarra, Bajo y Ukulele

  • LA -     FA      SOL        MI
    FA       SOL     LA -
    
    Y la letra (ke pedazo letra, señores!):
    LA -                     FA 
    Quieto parao, no te arrimes,
    SOL               MI
    ya son demasiados abriles
    FA                    SOL
    Para tu amanecer desbocao
                 LA -
    mejor que me olvides
    
    Yo me quedo aqui a tender
    MI pena A MI SOL
    en la cuerda de tender desolación
    
    Luego empezare a coser
    'te quieros' en un papel
    y a barrer el querer con los pelos de un pincel
    
  • LAm    FA     SOL     MI     FA     SOL     LAm
    
    
              LA m         FA      SOL                 MI 
    Quieto parao, no te arrimes ya son demasiados abriles
           FA              SOL                LA m
    Para tu amanecer desbocao, mejor que me olvides.
    
    LA m    FA             SOL                    MI 
    Yo me quedo aquí a tender mi pena a mi sol
    FA                 SOL       LAm
    En la cuerda de tender desolación
    LAm               FA            SOL          MI 
    Luego empezaré a coser “te quieros” en un papel
    FA                            SOL          LA m
    Y a barrer el querer con los pelos de un pincel
    
    
                 LA m
    Y en cuanto acabó
    
  • 1|-------------------------------------------------------------
    2|----------------------------------5-8---5-8--5-8-------------
    3|-------5---5-5-----5---55/7vvv--7v-----7----7---7-5-7--------
    4|--5/7----7-----5/7---7---------------------------------------
    5|-------------------------------------------------------------
    6|-------------------------------------------------------------
    
    
    
    1|---------------------------------------------------------------------
    2|---------------------------------------------------------------------
    3|-----5--------------------------------------------------5------------
    4|-5/7--7-5-7-5-7-5--5-------------------------5--5-7---7---------------
    5|------------------7---7-6-5------------5--5-7--7----------------------
    6|-----------------------------8--5--5-8-8-----------------------------
    
    1|----------------1010v----------------------------------------------
    2|5588101012121313--------17-20h17---------------------------------------
    3|---------------------------------19-17-19h17----------------------------
    4|---------------------------------------------19---17p19-17p19-)---------
    
  • e|----------------------------------------------------------------------|
    B|----------0h1p0-------------1------------3----------------0-----------|
    G|---2----2-------2---------2---2--------4----4--------0-------0--------|
    D|------2-----------------3------------5-------------2----2-------------|
    A|---0------------------------------------------------------------------|
    E|---------------------1-------------3--------------0-------------------|
    
    
    e|------------5------------------7--------------------------------------|
    B|--------------1-------------------3-------------0h1p0-----------------|
    G|--------2-------2----------4--------4----2----2--------2--2-----------|
    D|------3---3--------------5---5--------------2-------------------------|
    A|-----------------------------------------0----------------0-----------|
    E|---1------------------3-----------------------------------------------|
    
    
    Introducción por guitarra 2:
    
    Esta introducción de guitarra 2 me la he inventado así que no 
    la comparéis con la original porque no tiene nada que ver pero 
    
  • --------------------
     CoRaZóN dE MiMBrE
    --------------------
    
        -Introducción y primeros versos:
    
    
                        Am                 F                G
     Guitarra I:    e|---------------------------------------------------
                    B|---------0h1p0-------------1----------------3------
                    G|--2----2-------2---------2-----2---4------4---4----
                    D|-----2-----------0-----3---------3------5-------2--  [...] (continúa abajo)
                    A|--0------------------------------------------------
                    E|---------------------1----------------3------------
    
     Guitarra II:   e|---------------------1-3-----------------------------
                    B|----------0----1-----------0-1---1-3--3--1--0--1-3---
                    G|--2-----2--------2-------2-----2---------------------
                    D|----------------------------------------------------- [...] (ver abajo)
                    A|-----------------------------------------------------
    
  • +
    ¡Colabora con nosotros!
    Envíanos tu versión de esta canción
  • Tutorial
    HD
    COMO TOCAR CORAZON DE MIMBRE/ MAREA (ELÉCTRICA/ACUST)
    9:36

Letra de Corazón de Mimbre
Y la letra (ke pedazo letra, señores!):
Quieto parao, no te arrimes,
ya son demasiados abriles
Para tu amanecer desbocao
mejor que me olvides
Yo me quedo aqui a tender
en la cuerda de tender desolación
Luego empezare a coser
'te quieros' en un papel
y a barrer el querer con los pelos de un pincel
(y justito ahora, en La -, es cuando ties ke pisar el
pedal de distorsión)
Y en cuanto acabó
De romper las heridas de las noches mal dormidas
digo yo (¿?)
Que le llené de flores el jarrón para los dos
(igual los acordes)
Sin espinas de colores que se hieren cuando llora
y cuando no
las sulfatamos con nuestro sudooooor :)
Y me confesó
cuando quieras arrancamos ke la linea de la mano lo leyó
Que se acabó el cara quemada al sol
peró se asustó
'Cómo te retumba el pecho'
'tranki, es solo mi maltrecho corazón,
que se encabrita cuando oye tu voz el muy cabrón'
Y ahora el estribillo, k viene a ser con los acordes del
principio
Que coño le pasará
que ya no sale a volar
tal vez le mojó las plumas
el reyerte de la luna
le volvió loca el sonido
de las cgotas de rocío
cuando empieza a clareaaaaaar
Y aun no se ha dormío
(otra ve con la -, do y sol)
Y me enamoró (ya ves...)
aunque era una gran dama y yo seguía siendo nada
no importó
Eramos parte del mismo colchón
Hasta que juró
'nos querremos mas que nadie pa que no corra ni el aire
entre tu y yo'
Senti de nuevo faltando el calor (ma o meno
creo k es asi,la he sacao de oido, y hay cosas
como esta k no se le entienden)
Y digo yo...
Que coño le pasará
que ya no sale a volar
tal vez le mojó las plumas
el reyerte de la luna
le volvió loca el sonido
de las cgotas de rocío
cuando empieza a clareaaaaaar
Y aun no se ha dormío
y le hizo un roto al colchón,
con las plumas se forjó el corazón
anoche era de piedra, y al alba era de mimbre
que se arruga antes que partirse
que se arruga antes que partirse
que partirse...
(super solo)
Amaneció
la divisa sonriendo con lo puesto por la puerta
del balcón
el pelo al viento diciendole adios
porque decidió
que ya estaba hasta las tetas
de poetas de bragueta y revolcón
de trovadores de contenedoooor!!!
Que coño le pasará....
Y gueno, basicamente eso es. Un zalúo y
felis dosmir do!!!




[Corazón de Mimbre chords][Corazón de Mimbre cifra]
© LaCuerda.net · aviso legal · privacidad · es · en · pt · contacto