Acordes de Guitarra » M »Marea » Ciudad de los gitanos (Tab)

Ciudad de los gitanos
Marea

Letras, Acordes y Tabs para Guitarra, Bajo y Ukulele

  • G.                     D
    Los caballos negros son.
     Am.               Em
    las herraduras son negras.
     G.                  D
    sobre las capas relucen
     Am.                  Em
    manchas de tinta y de cera.
    G.                 D
    tienen, por eso no lloran,
     Am.                Em
    de plomo las calaveras.
     G.                D
    con el alma de charol
     Am.
    vienen por la carretera.
     C.       D.        G.
    ¡oh ciudad de los gitanos!
                Am.              C
    ¿quién te vió y no te recuerda?
    
  •                   x4       G               F#/D             Am                 MIm7
    e-------------------|---------------------------0---------------------------------------------
    b--------0-----0----|--------0-----0----------3---3---------------1-----0-----------3-----0---
    g------2---2-----2--|------2---2-----2------2-------2-----------2---2-----2-------0---0-----0-
    d----0-------0------|----0-------0--------0-----------0------2--------2--------2--------2-----
    a-------------------|-------------------------------------0-----------------------------------
    E-3-----------------|-3-----------------2-----------------------------------0-----------------
     
      
                                Los caballos negros son,               las herraduras son negras...
    
    Estos son los arpegios k suenan tol rato en las estrofas, asta k llega al estribillo.
    
    
     G                 F#/D
    Los caballos negros son.
     Am                 Em7 
    Las herraduras son negras.
    Sobre las capas relucen
    manchas de tinta y de cera.
    
  • e-------------------
    b--------0-----0----
    g------2---2-----2--
    d----0-------0------
    a-------------------
    E-3-----------------
    
    
              G               F#/D             Am                 MIm7
    ---------------------------0---------------------------------------------
    --------0-----0----------3---3---------------1-----0-----------3-----0---
    ------2---2-----2------2-------2-----------2---2-----2-------0---0-----0-
    ----0-------0--------0-----------0------2--------2--------2--------2-----
    -------------------------------------0-----------------------------------
    -3-----------------2-----------------------------------0-----------------
    
              Los caballos negros son,          las herraduras son negras...
    
    
    >>>> Esto se repite 3 veces; la cuarta tiene una ligera modificación:
    
  • +
    ¡Colabora con nosotros!
    Envíanos tu versión de esta canción

Letra de Ciudad de los gitanos
Los caballos negros son.
las herraduras son negras.
sobre las capas relucen
manchas de tinta y de cera.
tienen, por eso no lloran,
de plomo las calaveras.
con el alma de charol
vienen por la carretera.
¡oh ciudad de los gitanos!
¿quién te vió y no te recuerda?
ciudad de dolor y almizcle,
con las torres de canela.
¡oh ciudad de los gitanos!
¿quién te vió y no te recuerda?
apaga tus verdes luces
que viene la benemérita.
--(Aquí viene una serie de acordes)--
-Rasgueando-⬇⬇
La ciudad libre de miedo,
multiplicaba sus puertas.
cuarenta guardias civiles
entran a saco por ellas.
los relojes se pararon,
y el coñac de las botellas
se disfrazó de noviembre
para no infundir sospechas.
--(pequeño punteo)
un vuelo de gritos largos
se levantó en las veletas.
los sables cortan las brisas
que los cascos atropellan.
por las calles de penumbra
huyen las gitanas viejas
con los caballos dormidos
y las orzas de monedas.
por las calles empinadas
suben las capas siniestras,
dejando detrás fugaces
remolinos de tijeras.
¡oh ciudad de los gitanos!
¿quién te vió y no te recuerda?
dejadla lejos del mar
sin peines para sus crenchas.
¡oh ciudad de los gitanos!
¿quién te vió y no te recuerda?
que te busquen en mi frente
juego de luna y arena.
--(serie de acordes y punteo)--
Rosa la de los camborios,
gime sentada en su puerta
con sus dos pechos cortados
puestos en una bandeja
pero la guardia civil
avanza sembrando hogueras,
donde joven y desnuda
la imaginación se quema
¡oh ciudad de los gitanos!
¿quién te vió y no te recuerda?
que te busquen en mi grente.
juego de luna y arena.
¡oh ciudad de los gitanos!
la guardia civil se aleja
por un túnel de silencio
mientras las llamas te cercan




[Ciudad de los gitanos chords][Ciudad de los gitanos cifra]
© LaCuerda.net · aviso legal · privacidad · es · en · pt · contacto