Tablatura para Bajo de Marcos Witt: Tu nombre oh Dios
Conexión · Inscripción
Letras y Acordes
Pantalla Completa
Imprimir
Versión Texto
Añadir Favorito
Otras Versiones

Mostrar Diagramas
Desfile Automático
Formato del Texto


Tu nombre oh Dios(BAJ)

Marcos Witt

calidad:
mwit0423
AUTOR: Samuel E. Luna
ALBUM: Poderoso
Enviado por pablo
INTRO:
G:--------------------------------------
D:--------------------------------------
A:--------------------------------------
E:-12--5-5-5--5-5-5--5--5--5-----2--2--0DOS VECES

TU NOMBRE OH DIOS:

G:-------------------------------------------
D:-------------------------------------------
A:------------------------------------------
E:-12--5-5-5--5-5-5--5--5--5-----2--2--0-----

POR SIEMPRE TE PROCALMARE

G:-------------------------------------------
D:--------------------------------------------
A:---------------------------------------------
E:---5-5-5--5-5-5--5--5--5—5--5--5--2--2--0----

CORO:
POR QUE DIGNO DIGNO ERES TU:
G:---------------------------------------------
D:---------------------------------------------
A:----------------4-4-4---5-5-5---7-7-7--------
E:-2-2-0-2--2----------------------------------


G:--------------------------------------
D:--------------------------------------
A:-------------4-4-5--2-2--4-4-5--7-----
E:--2-2-0-2-----------------------------

SOLO DE ESLAP:

G:----------------------------------------------------7-----5----4--
D:------------------------------------------------------------------
A:----------------------5-3---------------------5-------3----2------
E:-5-5-3-5--5-5--3----------------5-5-3-5---------------------------

bueno dios les bendiga espero que les salga
escuchen el cd para sacar los tiempos dios
les bedigas cualquier
consulta mandemen unmail dios les bendiga
Este fichero es trabajo propio de su transcriptor y representa su interpretación personal de la canción. El material contenido en esta página es
para exclusivo uso privado, por lo que se prohibe su reproducción o retransmisión, así como su uso para fines comerciales.

© LaCuerda.net · Aviso Legal · Privacidad