Acordes de Guitarra » M »Marcos Witt » Tú Harás (Tab)

Tú Harás
Marcos Witt

Letras, Acordes y Tabs para Guitarra, Bajo y Ukulele

  • C7               F              C7
    Cuando el mar me dice, te hundirás,
                  F                C7
    me das tierra firme y puedo cruzar.
                    F             C7
    Cuando el monte dice: «No pasarás»,
                F             Eb
    tengo tu palabra y eso bastará.
    D    C#   C
    Ohh, ohh, ohh,
    Eb   D   C#
    ohh, ohh,
    Ab                 Bb
    Eres la fuerza que mueve mi vida.
    
    
    Coro:
    C                   F
    Eres mi Dios y tu harás
                                  Am
    
  • Intro: Cm7 F7
    
    Cm7               F7
    Cuando el mar me dice te hundirás
    Cm7             F7
    Me das tierra firme y puedo cruzar
    Cm7              F7
    Cuando el monte dice no pasaras
    Cm          F7                Eb
    Tengo Tu palabra y eso bastara
    
    D  Db  Cm7
    Ohhh, Ohhhh
    Eb  D  C#
    Ohhh, Ohhhh
    
    G#                   Bb
    Eres la fuerza que mueve mi vida
    
    CORO
    
  •              2, casi al final de este segundo.  Esta guitarra básicamente
                 hace esta secuencia x4 hasta el segundo 0:18.
           0:05  Al final de este segundo se oye claramente los platos.
           0:06  Entra la segunda guitarra que hace los slides.
           0:09  Entra el bombo de la batería al final de este segundo.
           0:10  Justo al principio de este segundo, justo después de que entra
                 el bombo de la batería, entra el bajo.  El bajo básicamente
                 hace una melodía similar a la alternativa 2.
           Todo continúa hasta el segundo 0:19, donde entra Marcos Witt.
    
    Alternativa 1.  Tocar la progresión x4, en cambios rápidos y precisos de
                      acordes.
    Alternativa 2.  Tocar el punteo de abajo x4.
    Alternativa 3.  Tocar la progresión de power chords en negrillas x4.
    
    
                C(b) A#  C(b)  F        D#  C (4ta vez--CsD#-D#sC--)
           E |---------------------------------------  --0----0----
           B |---------------------------------------  --1/4--4/1--
           G |---------------------------------------  --0----0----
    
  •              2, casi al final de este segundo.  Esta guitarra básicamente
                 hace esta secuencia x4 hasta el segundo 0:18.
           0:05  Al final de este segundo se oye claramente los platos.
           0:06  Entra la segunda guitarra que hace los slides.
           0:09  Entra el bombo de la batería al final de este segundo.
           0:10  Justo al principio de este segundo, justo después de que entra
                 el bombo de la batería, entra el bajo.  El bajo básicamente
                 hace una melodía similar a la alternativa 2.
           Todo continúa hasta el segundo 0:19, donde entra Marcos Witt.
    
    Alternativa 1.  Tocar la progresión x4, en cambios rápidos y precisos de
                      acordes.
    Alternativa 2.  Tocar el punteo de abajo x4.
    Alternativa 3.  Tocar la progresión de power chords en negrillas x4.
    
    
                C(b) A#  C(b)  F        D#  C (4ta vez--CsD#-D#sC--)
           E |---------------------------------------  --0----0----
           B |---------------------------------------  --1/4--4/1--
           G |---------------------------------------  --0----0----
    
  •        C                                             F
       E |-----------------------------------------------------------------|
       B |-----------------------------------8-10~-8--10/12~-10-8-10/13bf--|
       G |9~9-----9~9-----9s10s9-----9~9---9--------9----------------------|
       D |---10~10---10~10------10~10---10---------------------------------|
       A |-----------------------------------------------------------------|
       E |-----------------------------------------------------------------|
    
            G                     Am                             G
       E |---------12bf-10b----12/15bf--13-12-12bf-15b-12b-----------------|
       B |-10b-13b----------13-----------------------------15-13-15b~~-----|
       G |-----------------------------------------------------------------|
       D |-----------------------------------------------------------------|
       A |-----------------------------------------------------------------|
       E |-----------------------------------------------------------------|
    
         Rapidisima esta parte      Am                 Am/G
    E |----------------------------|----------------------------------------|
    B |-12-13-12-------------------|--13-12-13--13-12-13--13-12-13--13-12-13|
    G |----------14-12-------------|14--------14--------12--------12--------|
    
  • +
    ¡Colabora con nosotros!
    Envíanos tu versión de esta canción

Letra de Tú Harás
Cuando el mar me dice, te hundirás,
me das tierra firme y puedo cruzar.
Cuando el monte dice: «No pasarás»,
tengo tu palabra y eso bastará.
Ohh, ohh, ohh,
ohh, ohh,
Eres la fuerza que mueve mi vida.
Eres mi Dios y tu harás
más allá de lo que pueda imaginar,
más allá de lo que pueda yo soñar,
¡eres Dios y harás!
Eres Dios de ayer, eres Dios que está,
sabes lo que fue y sabes qué vendrá,
eres gran Yo Soy, tú me sostendrás,
tú eres mi Dios, en ti puedo confiar.
Ohh, ohh, ohh,
ohh, ohh,
eres la fuerza que mueve mi vida.
Mi vida has cambiado, salvado hoy,
¡A Dios sea la gloria y la hooooooonra, hoy
y para siempre!




[Tú Harás chords][Tú Harás cifra]
© LaCuerda.net · aviso legal · privacidad · es · en · pt · contacto