Tablatura para Guitarra de Marcos Witt: Quiero escuchar tu dulce voz
Conexión · Inscripción
Letras y Acordes
Pantalla Completa
Imprimir
Versión Texto
Añadir Favorito
Otras Versiones

Mostrar Diagramas
Desfile Automático
Manipular Acordes
Formato del Texto


Marcos Witt
Quiero escuchar tu dulce voz(TAB)
calidad:
mwit2333
AUTOR: Marcos Witt
ALBUM: Enciende una luz (1999)
Enviado por David
E|--------------------------5---------------------
B|-8-10-12-10-8-8-7---10------------------
G|------------------------------------------------
D|------------------------------------------------
A|------------------------------------------------
E|------------------------------------------------

E|------------------------------------------------
B|-3-5-7-8-8-7-3-10-----------------------
G|------------------------------------------------
D|------------------------------------------------
A|------------------------------------------------
E|------------------------------------------------

E|--------------------------5---------------------
B|-8-10-12-10-8-8-7---10------------------
G|------------------------------------------------
D|------------------------------------------------
A|------------------------------------------------
E|------------------------------------------------

E|------------------------------------------------
B|-3-5-7-8-8-7-3-10-----------------------
G|------------------------------------------------
D|------------------------------------------------
A|------------------------------------------------
E|------------------------------------------------

E|------------------------------------------------
B|-5-7-8-8---8-8-7-3-10-------------------
G|------------------------------------------------
D|------------------------------------------------
A|------------------------------------------------
E|------------------------------------------------

G D Quiero escuchar tu dulce voz
C Am D rompiendo el silencio en mi ser
G D Se que me harías estremecer
C Am D Me harías llorar o reír
C Am D Caería rendido ante ti Coro
G D Y no podría estar ante ti
Am escuchándote hablar
C D Sin llorar como un niño
G D y pasaría el tiempo así
Am sin tener nada más
C D G nada más que escucharte hablar
Este fichero es trabajo propio de su transcriptor y representa su interpretación personal de la canción. El material contenido en esta página es
para exclusivo uso privado, por lo que se prohibe su reproducción o retransmisión, así como su uso para fines comerciales.
© LaCuerda.net · Aviso Legal · Privacidad