Acordes de Guitarra » M »Marcos Witt » Quiero escuchar tu dulce voz (Tab)

Quiero escuchar tu dulce voz
Marcos Witt

Letras, Acordes y Tabs para Guitarra, Bajo y Ukulele

  • F                   C
    Quiero escuchar tu Dulce voz
       Bb             Gm          C
    rompiendo el silencio en mi ser
    F                 C
    se que me harías estremecer
       Bb       Gm       C
    me harías llorar o reir
        Bb        Gm          C
    y caería rendido ante ti...
    
    Coro:
    
       F             C
    /Y no podría estar ante ti
      Bb             Gm
    escuchandote hablar
       Bb             C
    sin llorar como un niño
       F            C
    
  • INTRO:   G - D - C - D  (2 veces)
    
    
    G                  D
    Quiero escuchar tu dulce voz
    
       C                         D    Dsus9
    Rompiendo el silencio en mi ser
    
    G                  D       Dsus9
    Se que me haría estremecer
    
          C             D   Dsus9
    Me haría llorar o reír
    
          C                D   Dsus9
    Y caería rendido ante Ti
    
    
      G            D
    
  • E|--------------------------5---------------------
    B|-8-10-12-10-8-8-7---10------------------
    G|------------------------------------------------
    D|------------------------------------------------
    A|------------------------------------------------
    E|------------------------------------------------
    
    E|------------------------------------------------
    B|-3-5-7-8-8-7-3-10-----------------------
    G|------------------------------------------------
    D|------------------------------------------------
    A|------------------------------------------------
    E|------------------------------------------------
    
    E|--------------------------5---------------------
    B|-8-10-12-10-8-8-7---10------------------
    G|------------------------------------------------
    D|------------------------------------------------
    A|------------------------------------------------
    E|------------------------------------------------
    
  • +
    ¡Colabora con nosotros!
    Envíanos tu versión de esta canción

Letra de Quiero escuchar tu dulce voz
Quiero escuchar tu Dulce voz
rompiendo el silencio en mi ser
se que me harías estremecer
me harías llorar o reir
y caería rendido ante ti...
/Y no podría estar ante ti
escuchandote hablar
sin llorar como un niño
y pasaría el tiempo así
sin querer nada más,
nada más que escucharte hablar/
______________________________
Ahora vienen las notas:
____________________________
QUE TODA LA GLORIA Y LA ALBANZA SEA PARA EL GRANDE,
EL PRINCIPAL.... JESUS




[Quiero escuchar tu dulce voz chords][Quiero escuchar tu dulce voz cifra]
© LaCuerda.net · aviso legal · privacidad · es · en · pt · contacto