Tablatura para Guitarra de Marcos Witt: Has Cambiado
Conexión · Inscripción
Letras y Acordes
Pantalla Completa
Imprimir
Versión Texto
Añadir Favorito
Otras Versiones

Mostrar Diagramas
Desfile Automático
Manipular Acordes
Formato del Texto


Has Cambiado(TAB)

Marcos Witt

calidad:
mwit3131
AUTOR: Juan Salinas
ALBUM: 25 Conmemorativo (2011)
Enviado por Manuel
 Hola les dejo este tabs es del ultimo disco
 me quedo igual ojala les guste

 Intro.

E-----------------------------------
B-----------------------------------
G----------------------------------- D--7-9-7s5-----5h7-5v--7-----5------
A----------7-5----------5s4---4s3v--
E-----------------------------------
E---------------------------------------------
B---------------------------------------------
G--------------------------------------------- D--7-9-7s5-----5h7-5v-7-----5-------7-----9---
A----------7-5----------5s4---4s3-5---5-7-----
E---------------------------------------------
E-----------------------------------
B-----------------------------------
G----------------------------------- D--7-9-7s5-----5h7-5v--7-----5------
A----------7-5----------5s4---4s3v--
E-----------------------------------
E----------------------
B----------------------
G---------------------- D--7-9-7s5-----5h7-5v--
A----------7-5---------
E----------------------
E------------------------------------------------- B--------------------------10-12-10s8----8s10-8v--
G------------------------------------9-7---------- D----------------------4-6------------------------
A------5-----7-6-5-4-3-2-4------------------------ E--3-5---5-7--------------------------------------
E----------------
B----------------
G---------------- D--4-6--9-7-6----
A--2-4--7-5-4----
E---------------- Verso. Has cambiado mi lamento en baile
E------------------------------------------------ B------------------------10-12-10s8-----8s10-8v--
G-----------------------------------9-7---------- D---5-7------------------------------------------
A---3-5------------------------------------------
E------------------------------------------------ Me ceñiste todo de alegria
E-------------------------------------
B-------------------------------------
G------------------------------------- D--5-7--------------------9 7-12-11---
A--3-5--------------------7-5-10-9----
E------------------------------------- Has cambiado mi lamento en baile
E------------------------------------------------ B------------------------10-12-10s8-----8s10-8v--
G-----------------------------------9-7---------- D---5-7------------------------------------------
A---3-5------------------------------------------
E------------------------------------------------ Me ceñiste todo de alegria
E--------------------------
B--------------------------
G-------------------------- D--5-7---------9-7-11-12---
A--3-5---------7-5-9--10---
E-------------------------- Coro Por tanto a ti cantare
E-----------------------
B----------------------- G--7-7-7-7---7-7-7-7----
D--5-5-5-5---7-7-7-7---- A--5-5-5-5---5-5-5-5----
E----------------------- Gloria mia, gloria mia
E-----------------------
B-----------------------
G----------------------- D--7-7-7-7--5-5-5-7-----
A--5-5-5-5--7-7-7-5----- E--5-5-5-5--7-7-7-5----- Y solo a ti danzare
E-----------------------
B----------------------- G--7-7-7-7---7-7-7-7----
D--5-5-5-5---7-7-7-7---- A--5-5-5-5---5-5-5-5----
E----------------------- Gloria mia, gloria miaaa..
E-------------------------
B------------------------- G-5-5-5---------------4v--
D-5-5-5---------------4v-- A-3-3-3---------------2v--
E------------------------- SE REPITE VERSO Coro Por tanto a ti cantare
E-----------------------
B----------------------- G--7-7-7-7---7-7-7-7----
D--5-5-5-5---7-7-7-7---- A--5-5-5-5---5-5-5-5----
E----------------------- Gloria mia, gloria mia
E-----------------------
B----------------------- G--9-9-9-9--9-9-9-7-----
D--7-7-7-7--9-9-9-7----- A--7-7-7-7--7-7-7-5-----
E------------------------ Y solo a ti danzare
E-----------------------
B----------------------- G--7-7-7-7---7-7-7-7----
D--5-5-5-5---7-7-7-7---- A--5-5-5-5---5-5-5-5----
E----------------------- Gloria mia, gloria miaaa..
E-------------------------
B------------------------- G-5-5-5---------------4v--
D-5-5-5---------------4v-- A-3-3-3---------------2v--
E-------------------------
Este fichero es trabajo propio de su transcriptor y representa su interpretación personal de la canción. El material contenido en esta página es
para exclusivo uso privado, por lo que se prohibe su reproducción o retransmisión, así como su uso para fines comerciales.

© LaCuerda.net · Aviso Legal · Privacidad