Tablatura para Bajo de Marcos Witt: Es aquí, es ahora
Conexión · Inscripción
Letras y Acordes
Pantalla Completa
Imprimir
Versión Texto
Añadir Favorito
Otras Versiones

Mostrar Diagramas
Desfile Automático
Formato del Texto


Es aquí, es ahora(BAJ)

Marcos Witt

calidad:
mwit2792
AUTOR: Marcos Witt
ALBUM: Sobrenatural (2008)
Enviado por chordsbass
Intro


G ---------------------------------------------------------------------------
D ---------------------------------------------------------------------------
A --5--5-5--5--5-----3--5--5-5---8-8-7----5--5-5--5-5----3--5---5-5----8-8-7-
E ----------------3-5--------------------------------3-5--------------------




G ---------------------------------------------------------------------------
D ---------------------------------------------------------------------------
A --5--5-5--5--5-----3--5--5-5---8-8-7----5--5-5--5-5----3--5---5-5----8-8-7-
E -----------------3-5--------------------------------3-5--------------------


Verse 1

G ----------------------------------------------------------------
D ----------------------------------------------------------------
A -5--5-5--5-5----3-5-5-5--5-5-----------------3--5--5-5--8-8-7---
E -------------3-5-------------3--3-3--3-3-3-5--------------------


G ----------------------------------------------------------------
D ----------------------------------------------------------------
A -5--5-5--5-5----3-5-5-5--5-5-----------------3--5--5-5--8-8-7---
E -------------3-5-------------3--3-3--3-3-3-5--------------------

Pre-Chorus

G ---------------------------------------------------------------------
D -------------5-----------------3------------------------5-3-2--------
A ---7s--12------5--5-3-5--5-3-5--5--3h-5-3------7s-12-----------------
E -5--------3-3-----------------------------5-3-5------3-3------3333333


Chorus

G -------------------------------------------
D -------------------------------------------
A -3-55555--3-5555--------5-777777-----------
E ---------5-------0-000-5--------5-3-33333-5

G -------------------7-------------------
D ------------------7-5---2---------2---
A 3-2-3-2-3-2-3-2--5---5-3-3-2-22--3-3-2-
E ---------------------------------------

G -------------------------------------------
D -------------------------------------------
A -3-55555--3-5555--------5-777777-----------
E ---------5-------0-000-5--------5-3-33333-5

G -------------------7-------------------
D ------------------7-5---2---------2---
A 3-2-3-2-3-2-3-2--5---5-3-3-2-22--3-3-2-
E ---------------------------------------

Verse 2

G ----------------------------------------------------------------
D ----------------------------------------------------------------
A -5--5-5--5-5----3-5-5-5--5-5-----------------3--5--5-5--8-8-7---
E -------------3-5-------------3--3-3--3-3-3-5--------------------


G ------------------------------------------------------------------
D ---------------------------------------------5h-7-5---------------
A -5--5-5--5-5----3-5-5-5--5-5-----------------------7-5--5-5--8-8-7
E -------------3-5-------------3--3-3--3-3--3-5---------------------

Pre-Chorus

G ---------------------------------------------------------------------
D -------------5-----------------3------------------------5-3-2--------
A ---7s--12------5--5-3-5--5-3-5--5--3h-5-3------7s-12-----------------
E -5--------3-3-----------------------------5-3-5------3-3------3333333


Chorus

G -------------------------------------------
D -------------------------------------------
A -3-55555--3-5555--------5-777777-----------
E ---------5-------0-000-5--------5-3-33333-5

G -------------------7-------------------
D ------------------7-5---2---------2---
A 3-2-3-2-3-2-3-2--5---5-3-3-2-22--3-3-2-
E ---------------------------------------

G -------------------------------------------
D -------------------------------------------
A -3-55555--3-5555--------5-777777-----------
E ---------5-------0-000-5--------5-3-33333-5

G -------------------7-------------------
D ------------------7-5---2---------2---
A 3-2-3-2-3-2-3-2--5---5-3-3-2-22--3-3-2-
E ---------------------------------------


Instrumental

G ----------------------------------------------------
D --------------3------------------------3------------
A --55555555555--3-3---------55555555555--3-3---------
E --------------------3-33333-----------------3-33333-

G ----------------------------------------------------
D --------------5------------------------5------------
A --77777777777--5-5---------77777777777--5-5---------
E -------------------5-555555-----------------5-55555-

G ----------------------------------------------------
D --------------3-----------------------3-------------
A --55555555555--3-3--------55555555555--3-3----------
E -------------------3-33333-----------------3--------

S= Slide
H= Hammer

Espero les sea de bendición, Dios los bendiga
Este fichero es trabajo propio de su transcriptor y representa su interpretación personal de la canción. El material contenido en esta página es
para exclusivo uso privado, por lo que se prohibe su reproducción o retransmisión, así como su uso para fines comerciales.

© LaCuerda.net · Aviso Legal · Privacidad