Acordes de Guitarra » M »Marcos Witt » En tí (Tab)

En tí
Marcos Witt

Letras, Acordes y Tabs para Guitarra, Bajo y Ukulele

  • E            A            
    En Tí confia mi corazón.  
       B            A  E B/D# C#m 
    En Tí reposa mi alma, mi  ser. 
    
       F#m             Bsus4  B  
    En Tí puedo ser feliz.  
      
    
    C       D             E  
    Porque se que estás obrando.  
    
    C       D          E  
     Tu perfecta voluntad.  
    
    C        D            E 
    En  mi  vida estás obrando.  
    
    C       D          E  
     Tú perfecta voluntad.
    
  • En Ti confía mi corazón , En Ti reposa mi alma ,mi ser
    
    E -----4--4-4-5-7-7-7--5-5--------------------------------------
    B ---0------------------------7--7-7-9-10-10-9--7-5-------------
    G --------------------------4-----------------------------------
    D --------------------------------------------------------------
    A --------------------------------------------------------------
    E --------------------------------------------------------------
    
    En Ti puedo ser feliz
    E --------------------------------------------------------------
    B --------5-5-7-9-7---------------------------------------------
    G --------------------------------------------------------------
    D --------------------------------------------------------------
    A --------------------------------------------------------------
    E --------------------------------------------------------------
    
    
    
    CORo :
    
    porque sé q estas obrando ,tu perfecta voluntad
    
    E -----------------------------------------------------
  • +
    ¡Colabora con nosotros!
    Envíanos tu versión de esta canción

Letra de En tí
En Tí confia mi corazón.
En Tí reposa mi alma, mi ser.
En Tí puedo ser feliz.

Porque se que estás obrando.
Tu perfecta voluntad.
En mi vida estás obrando.
Tú perfecta voluntad.
ESPERO QUE LES GUSTE
DIOS LES BENDIGA.




[En tí chords][En tí cifra]
© LaCuerda.net · aviso legal · privacidad · es · en · pt · contacto
DINAMICO