Acordes de Guitarra » M »Marcos Witt » En los montes, en los valles (Tab)

En los montes, en los valles
Marcos Witt

Letras, Acordes y Tabs para Guitarra, Bajo y Ukulele

  • Intro:    ////Dm - Bb - A////
    
    
    Dm                  Bb        A
    Oh - Oh - Oh - Oh - Oh - Oh - Oh
    
    
       /Dm - Bb -A/
    
    
    Dm                             Bb                     C
      En los montes, en los valles,  Exaltamos al que es digno de
    
              Dm
      Alabanza.
    
    Dm                           Bb                 C
      En las costas de los mares,  Levantamos un sonido de
    
               Dm
    
  • Bueno, en sí esta canción lleva pocos arreglos en la guitarra,
    los cuales serían:
    
    (min. 3:10)
    D|------------|----------------|
    A|-5-5--5-3-5-|---3-5-5--5-3---|
    E|------------|-5------------5-| x2
    
    Y luego vendría el solo:
    
    (min. 3:19)
    e|---------------------------------------------|
    B|------13^---10-13-10-------------------------|
    G|-9s12----------------13-12-10----10-12^--10v-|
    D|------------------------------12-------------|
    
    (min. 3:23)
    e|---------------------------------------------|
    B|-10h13p10h13--10h13p10h13p10h13p10h13...--13~|
    
    
    ^ - Bend; alzar la cuerda para que suene como la nota del siguiente
              traste.
    
    v - Vibrato; hacer vibrar y dar enfásis en una nota.
    
    ~ - En la última nota, se usa la barra de trémolo y se vibra.
    
    
    Cualquier petición, sugerencia o detalle: saviour_king@msn.com
    
    Nos vemos.
  •  Dm                          A#-A
    
    1|---------------------------------|
    2|----10----------10---------------|
    3|-7------7----7-----7-------------|     <--X2
    4|---------------------------------|
    5|---------------------------------|
    6|---------------------------------|
    
    
        Dm                  A#        A
        Oh - Oh - Oh - Oh - Oh - Oh - Oh
    
    1|-------------------------------------|
    2|-------------------------------------|
    3|-------------------------------------|   <----X4
    4|-------------------------------------|
    5|--5----------------------------------|
    6|---------------------6-----------5---|
    
    
  • EN LOS MONTES EN LOS VALLES
    
    INTRO(D-Bb-A)X2
    
    SOL------------------
    RE------------------- (2 VUELTAS ANTES)Y
    LA--5-0---------8-7--  COMIENZA LA CANCION
    MI------0-0----6-5-5-
    
    2º(PARTE)
    SOL----7-7--------
    RE -----7-7--8-7--
    LA ------------8-7
    MI ---------------
    
    (CORO)
    SUBAMOS A ADORAD EN EL MONTE DE SION
    
    SOL----------------------------
    RE -------------------7-5------
    LA 5-5-5-----5-5-5-------8-7-5-
    MI -----3-3-3-----5-5X2--------
    
    Y CON USTEDES FUNKI ("FINAL")
    
    SOL---------------------  COMIENZA LA GUITARRA Y CUANDO LLEVA
    RE --------------------- LOS PRIMEROS 4 TIEMPOS ENTRA EL BAJO
    LA --5--5-3-5---3-5-5-3- (X 4)SE ACABA Y COMIENZA LA SIGUIENTE
    MI ------------5-------5  ESTROFA
    
    
    DE NUEVO
    SOL--------------------
    RE --------------------
    LA -5-----5------------
    MI ---6-5---6-5--------
    
    LINK:http://www.youtube.com/watch?v=I2DrbgjsgmA
  • +
    ¡Colabora con nosotros!
    Envíanos tu versión de esta canción
  • Tutorial
    HD
    Tu haras y En los montes, en los valles 25 conmemorativo Tutorial de Bajo
    10:58

Letra de En los montes, en los valles
Oh - Oh - Oh - Oh - Oh - Oh - Oh
En los montes, en los valles, Exaltamos al que es digno de
Alabanza.
En las costas de los mares, Levantamos un sonido de
Esperanza.
Aclamamos, aclamamos,
Hacemos oír la voz de su alabanza.
Con las manos en lo alto
Exaltamos al que reina para siempre.
Oh - Oh - Oh - Oh - Oh - Oh - Oh
Oh - Oh - Oh - Oh - Oh - Oh - Oh
Oh - Oh - Oh - Oh - Oh - Oh - Oh
Oh - Oh - Oh - Oh - Oh - Oh - Oh
Subamos a adorar en el monte de Sión,
Es el gozo de toda nación.
Donde la tristeza es gozo,
El llanto es alegría.
Subamos a adorar al gran Rey.
En la participacion de FUNKY son los mismos acordes de la intro.
Cualquier duda, comentario o sugerencia pueden escribirme a:
Chuby_reyes10@hotmail.com
Bendiciones, y sobre todo a los salvadoreños!!!!




[En los montes, en los valles chords][En los montes, en los valles cifra]
© LaCuerda.net · aviso legal · privacidad · es · en · pt · contacto