Tablatura para Guitarra de Marcos Witt: En los montes, en los valles
Conexión · Inscripción
Letras y Acordes
Pantalla Completa
Imprimir
Versión Texto
Añadir Favorito
Otras Versiones

Mostrar Diagramas
Desfile Automático
Manipular Acordes
Formato del Texto


En los montes, en los valles(TAB)

Marcos Witt

calidad:
mwit2182
AUTOR: Emmanuel Espinoza y juan Salinas
ALBUM: Dios es Bueno (2005)
Enviado por Mike
Bueno, en sí esta canción lleva pocos arreglos en la guitarra,
los cuales serían:

(min. 3:10)
D|------------|----------------|
A|-5-5--5-3-5-|---3-5-5--5-3---|
E|------------|-5------------5-| x2

Y luego vendría el solo:

(min. 3:19)
e|---------------------------------------------|
B|------13^---10-13-10-------------------------|
G|-9s12----------------13-12-10----10-12^--10v-|
D|------------------------------12-------------|

(min. 3:23)
e|---------------------------------------------|
B|-10h13p10h13--10h13p10h13p10h13p10h13...--13~|


^ - Bend; alzar la cuerda para que suene como la nota del siguiente
          traste.

v - Vibrato; hacer vibrar y dar enfásis en una nota.

~ - En la última nota, se usa la barra de trémolo y se vibra.


Cualquier petición, sugerencia o detalle: saviour_king@msn.com

Nos vemos.
Este fichero es trabajo propio de su transcriptor y representa su interpretación personal de la canción. El material contenido en esta página es
para exclusivo uso privado, por lo que se prohibe su reproducción o retransmisión, así como su uso para fines comerciales.

© LaCuerda.net · Aviso Legal · Privacidad