Acordes de Guitarra » M »Marcos Witt » Dios, desciende aquí (Tab)

Dios, desciende aquí
Marcos Witt

Letras, Acordes y Tabs para Guitarra, Bajo y Ukulele

  • Afinación G D A E B
    
      Intro
    G |------------------------------------------------------------------
    D |-----------4h6----------------------------------------------------
    A |-2s4-------------4---4-4-4-4-4-4---4-4---------4---4-4-4-4-4-4----
    E |-----------------------------------------4--4---------------------
    B |------------------------------------------------------------------
    
    G |-----------------------------------------------|
    D |-----4h6-------------------------------4h6-----|
    A |4-4---------4---4-4-4-4-4-4---4-4--------------|
    E |---------4-------------------------------------|
    B |-----------------------------------------------|
    
    Verso 1
    G |-----------------------------------------------------------------
    D |-------------------------4h6----------------------------4h6------
    A |-4---4-4-4-4-4-4---4-4----------4---4-4-4-4-4-4---4-4------------
    E |-----------------------------4------------------------------4----
    B |-----------------------------------------------------------------
    
    G |-
  • C#     F#/G#    C#    F#   F#/G#       C#
    Dios, desciende aquí Dios, desciende aquí.
               Bbm7               F#
    Te quiero tocar, te quiero abrazar,
    F#/G#       C#
    desciende aquí.
    C#     F#/G#     C#    F#    F#/G#     C#
    Dios, desciende aquí, Dios, desciende aquí.
               Bbm7                  F#
    Te quiero escuchar, te quiero hablar,
    F#/G#      C#
    desciende aquí.
        F#     F#/G#     C#    F#         F#/G#      C#
    Espíritu, desciende aquí, consolador, desciende aquí…
         F#        G#  Bbm      G#      C#
    Salvador, Dios de amor, desciende aquí.
    
    CAMBIO DE NOTA: C#   F#   Ebm   F#/G#   C#
    
    D        G/A      D   D      G/A      D
    
  • B:---------6-9---7-6-----6----------6-9---||
    G:---6-8-------------8-6--------6-8-------||
    D:-6--------------------------6-----------||
    A:----------------------------------------||
    E:----------------------------------------||
    
    
    Lo siguiente va despues de el primer "Salvador, Dios de amor,
    Deciende Aqui" Despues se sube de termino de C# a D.
    
    e:-----------------------------------------------||
    B:-----6-7-6--------------6-7-6------------------||
    G:-6-8---------8--6---6-8---------8-6--------7-7-||
    D:------------------8-----------------8--6-8-----||
    A:-----------------------------------------------||
    E:-----------------------------------------------||
    Antes del solo de la guitarra va esto mismo solo que se le
    aumenta uno a cada numero.
    
    Solo:
    
  • +
    ¡Colabora con nosotros!
    Envíanos tu versión de esta canción






[Dios, desciende aquí chords][Dios, desciende aquí cifra]
© LaCuerda.net · aviso legal · privacidad · es · en · pt · contacto