Acordes de Guitarra » M »Marcos Brunet » Todo pertenece a ti (Tab)

Todo pertenece a ti
Marcos Brunet

  • Letra y Acordes
    F#m - E - F#m - E[B] - B - C#m - D
    
    F#m - E - F#m - E[B] - B - C#m - D - E - F#m (Mantener)
    
    
    VERSO:
    F#m                      E
     De mi papá es la tierra y su plenitud
        C#m                        D
     El mundo y todo lo que en el hay
    
    F#m                          E
     Donde pise la planta de mis pies
                     C#m                   D
     Tu palabra activaré y la tierra cambiará
    
    
    PRECORO:
          E     F#m       D
     Me alegraré en mi herencia
    
  • Tablatura
    intro;FA#m  MI FA#m SI SI DO# RE FA#m  MI FA#m SI SI DO# RE MI
    
     FA#m               MI                  FA#m            SI
    -------------------------------------------------------------17-19-17---e
    --17h19-17h19-17----------------------17h19-17h19-17-------19--------19-b
    -----------------18-16----16h18-16-------------------18-16--------------g -
    -----------------------19----------19----------------------------------d
    ------------------------------------------------------------------------a
    
    
    SI                                DO#  RE
    ---------------------------------------------------------------e
    --17h19-17h19-17--------------------------------------17-----------b
    -----------------18-16----16h18-16--------------16-17---------------g -
    -----------------------19----------19--16-17-18-----------------------------d
    -----------------------------------------
    
    
    FA#m                MI                 FA#m            SI
    -------------------------------------------------------------17-19-17---e
    
  • Tab p/Bajo
    Intro
    G|------------------------------------
    D|------------------------------------
    A|--------------------2(8)-4(8)-5(16)-
    E|-2(8)-0(8)-2(8)-7(8)----------------
    
    G|-------------------------------------------------------------|
    D|-------------------------------------------------------------|
    A|--------------------2(8)-4(8)-5(16)-7(16)--------------------|
    E|-2(8)-0(8)-2(8)-7(8)---------------------2-2--2(4)--2-2--2(4)|
    
    Verso
    G|-------------------------------------------|
    D|-------------------------------------------| ×2
    A|----------------------4-4--4(4)--5-5-5-5(4)|
    E|-2-2--2(4)--0-0--0(4)----------------------|
    
    
    E         F#             D
    Me alegraré en mi herencia
    E       F#              D
    Y danzaré en tu presencia.
    
    Coro
              D       E            F#     G#
    Todo pertenece a ti, todo pertenece a ti
              D            E            F#    G#
    Y nada jamas se escapará de tu control//
    
    
    Intro
    G|------------------------------------------
    D|-------------------------------------
  • +
    ¡Colabora con nosotros!
    Envíanos tu versión de esta canción

Letra de Todo pertenece a ti
VERSO:
De mi papá es la tierra y su plenitud
El mundo y todo lo que en el hay
Donde pise la planta de mis pies
Tu palabra activaré y la tierra cambiará
PRECORO:
Me alegraré en mi herencia
Y danzaré en tu presencia
Todo pertenece a ti, Todo pertenece a ti
Y nada jamás se escapará de tu control
La tierra es tuya, también es mía
Y yo disfruto mi herencia todo el día
La tierra es tuya, también es mía
Y yo me alegro en tu presencia todo el día



© LaCuerda.net · aviso legal · privacidad · contacto