Acordes de Guitarra » M »Marcos Vidal » Dulce Refugio (Tab)

Dulce Refugio
Marcos Vidal

Letras, Acordes y Tabs para Guitarra, Bajo y Ukulele

  • C          G   F          C
      Dulce refugio en la tormenta
    
    F         C               G
      es Jesucristo el salvador.
     
    C          G   F      C
      él me alienta y alimenta
     
    F           G           C
      con su palabra y su amor.
     
    CORO: 
    
    C             F   G  C
      Vengo a reposar en él,
     
    C            F G    Am
      él es mi ami-go fiel,
      
    
  • C        G             F        C             F       C
     Dulce Refugio...      en la tormenta...      es Jesucristo...
    
          e|------------------------8-8-8-7-5---5---------------------|
          B|--------12------10----------------8-6------------5-6-6/8--|
          G|-----12----12-10------------------------------------------|
    
           G
    el Salvador.
    
          e|-----8-8-8-10-8-7h8-7----------------------|
          B|----------------------10-8-----------------|
          G|---------------------------10-9-8-7-7-8-9--|
    
    C        G            F      C           F            G          C
     Él me alienta...       y alimenta...            con su Palabra y su Amor
    
          e|-----5h7-5h7--5-------7h8-----------------------------------------------|
          B|---8---------6------------8-7h8---10-----------------------------3-4-5--|
          G|--------------------------------9---------------------------------------|
    
  •    C     G    F
    Dulce refugio
     E  E  F G D
    
           C         F
    En la tormenta
    A   A  B  c  G
    
             G             Dm   G  C
    Es Jesucristo El salvador.
     A  A B  c   G    F  E D
    
             G   F       C      F
    El me alienta y me alimenta
     E  E F  G  D A   A  B c  G
    
    
              G           C
    Con su palabra y su amor.
     A   A  B c B  A  B  c
    
    
                 F   G  C
    Vengo a reposar en el
     c B   A   G A   G  E
    
    
               F G  Am
    El es mi amigo fiel
    c   B  A G A B   c
    
             D                Dm G
    Una poderosa y fresca uncion
    c B  A G A A  A     D   c    B
    
    
          C         F
    Llenara mi corazon.
     A  c B  G  G C A
  • +
    ¡Colabora con nosotros!
    Envíanos tu versión de esta canción

Letra de Dulce Refugio
Dulce refugio en la tormenta
es Jesucristo el salvador.

él me alienta y alimenta

con su palabra y su amor.

Vengo a reposar en él,

él es mi ami-go fiel,

una poderosa y fresca unción

llenará mi corazón.-
Realmente una bendicion lo que Dios está haciendo
en las vidas de sus hijos espero disfruten esta cancion y
les sea de bendicion como lo fué para mi...




[Dulce Refugio chords][Dulce Refugio cifra]
© LaCuerda.net · aviso legal · privacidad · es · en · pt · contacto
DINAMICO