Acordes de Guitarra » M »Marco Barrientos » Quiero mirar tu hermosura (Tab)

Quiero mirar tu hermosura
Marco Barrientos

  • Letra y Acordes
    E               B/D#            A/C#        B
    Dios, me abro a Ti, me entrego a ti, Jesús
              A               C#m
    Estoy dispuesto y en tus manos
              F#m   B
    Lo rindo todo, Señor
    
    
    Puente
    
    C#m               A
       Abre mis ojos,   déjame verte
    F#m              E/B          B
    Quita las vendas que me han cegado
    C#m             A
    Abre mis ojos, yo quiero verte
    F#m               B            E/G#
    Muestra tu gloria y tu gran bondad
    
    
    
  • Letra y Acordes
    INTRO: ///G, A, D/// SE REPITE 3
    VECES LUEGO VA ESTO (Em, A, D)
    En conclusión;
    El intro se lo toca 2 veces todo..
    
    Verso
    D               A                G      A
    Dios, me abro a Ti, me entrego a ti, Jesús
              G               Bm
    Estoy dispuesto y en tus manos
              Em     A
    Lo rindo todo, Señor
    
    
    Puente
    
      Bm            G
    Abre mis ojos, déjame verte
    Em               G            A
    Quita las vendas que me han cegado
    
  • Tablatura
    Hola Chavos y chavas aqui les muestro casi todos los punteos de esta
    bella adoración espero que les sea de utilidad y de bendicion....
    Disfrutenla
    
    
    Intro
    0:0
    e--7-9-10-9-7----7---7----7-9-10-9-7----7-----7-9-10-9-7----7---7-
    B-------------10---7-----------------10---7--------------10---7---
    G-----------------------------------------------------------------
    D-----------------------------------------------------------------
    A-----------------------------------------------------------------
    E-----------------------------------------------------------------
    
    e--------------------------------7---7-9-10-9-7----7---7----------
    B--8-8-8--10-10-10-10-10---7--10----------------10---7------------
    G-----------------------------------------------------------------
    D-----------------------------------------------------------------
    A-----------------------------------------------------------------
    E-----------------------------------------------------------------
    
    e--7-9-10-9-7----7-----7-9-10-9-7-
  • Tablatura
     D2          G    D2  G    Bm   A    G Bm             A  G
    e-14-15-----9-7-10---9---10-12-7-5-10-----------9-9-----10-10-9-9-14-14----
    B-------3-5--------3---3----------------8-8-7-7-----7-7-----------------7-7
    
    INTRO (LA MAYORÍA DE LAS NOTAS DE GUITARRA ELÉCTRICA SON ARMÓNICAS,
    EXCEPTO LAS NOTAS DEL RIFF PRINCIPAL. ESTAS SON CON VIBRATO)
    
    e------7-9-10-9-7----7---7----7-9-10-9-7----7-----7-9-10-9-7----7---7--
    B-8-8-------------10---7-----------------10---7--------------10---7----
    G----------------------------------------------------------------------
    
    e----------------------------------7---7-9-10-9-7----7---7----------
    B---8-8-8-10-10-10-10-10---7-10-------------------10---7------------
    G-------------------------------------------------------------------
    
    e---7-9-10-9-7----7-----7-9-10-9-7----7---7-------------------------
    B--------------10---7--------------10---7-----8-8-7-----------------
    G---------------------------------------------------9---7-6-7-------
    
    INTRO: G, A, Bm - G, A, D - G, A, Bm - Em, A, D
    
  • Tab p/Bajo
    4/4
    
    VERSO
         W                   W                   W
    G||-------------------|-------------------|-------------------|
    D||--0----------------|-------------------|-------------------|
    A||-------------------|--4----------------|--2----------------|
    E||-------------------|-------------------|-------------------|
    B||-------------------|-------------------|-------------------|
    
    
      W                   H        Q    E.  S    W
    -------------------|----------------------|-------------------|
    -------------------|----------------------|-------------------|
    --0----------------|----------------------|--2----------------|
    -------------------|--3--------L----L---3-|-------------------|
    -------------------|----------------------|-------------------|
    
    
                                            PUENTE
      W                   W                   Q    E.  S H
    -------------------|-------------------|----------------------|
    -------------------|-------------------|----------------------|
    -------------------|-
  • +
    ¡Colabora con nosotros!
    Envíanos tu versión de esta canción
  • Tutorial
    Quiero mirar tu hermosura - marco barrientos bajo
    7:44

Letra de Quiero mirar tu hermosura
Dios, me abro a Ti, me entrego a ti, Jesús
Estoy dispuesto y en tus manos
Lo rindo todo, Señor
Abre mis ojos, déjame verte
Quita las vendas que me han cegado
Abre mis ojos, yo quiero verte
Muestra tu gloria y tu gran bondad
Quiero mirar tu hermosura
Y contemplar tu majestad
Abre mis ojos, Jesucristo
Muestra tu gloria y tu bondad
DIOS LES BENDIGA ESPERO QUE LES GUSTE MUCHISIMO.
HASTA MUY PRONTO.



© LaCuerda.net · aviso legal · privacidad · contacto