Acordes de Guitarra » M »Marco Barrientos » Queremos Ver (Tab)

Queremos Ver
Marco Barrientos

Letras, Acordes y Tabs para Guitarra, Bajo y Ukulele

  • //G D Em C//
    E -3----3-5--3-5-7-8-7-5-5-3--3----3-5-3--5-7-8-5----0-3-0-3-|
    B ----3--------------------------3-----------------3---------|
    G -----------------------------------------------------------|
    D -----------------------------------------------------------|
    A -----------------------------------------------------------|
    E -----------------------------------------------------------|
    
    Estos son los tonos originales pero en las estrofas
    si se quiere que se oiga un poco mas "Lleno" se le
    puede agregar D después de C
    o se pueden cambiar los tonos así:
    
    D = Dadd2
    Em = Em7
    C = Cadd2
    
    
      G            D          Em
    //Queremos a Cristo proclamar
    
  • E --3---3-5-3-5-7-8-7-5-5-3-5-5--
    B ----3--------------------------
    G ------------------------------- * 2 VECES
    D -------------------------------
    A -------------------------------
    E -------------------------------
    
    G             D          Em
    Queremos a Cristo proclamar
                   C           G
    como un estandarte levantar
                  D           Em
    que toda la gente pueda ver
                   C            G
    que el es el camino al Cielo
    
    
                D                Em
    //Queremos ver, queremos ver
              C          G
    
  • //G D Em C//
    E -3----3-5--3-5-7-8-7-5-5-3--3----3-5-3--5-7-8-5----0-3-0-3-|
    B ----3--------------------------3-----------------3---------|
    G -----------------------------------------------------------|
    D -----------------------------------------------------------|
    A -----------------------------------------------------------|
    E -----------------------------------------------------------|
    
      G            D          Em
    //Queremos a Cristo proclamar
                  C          G
    Como un estandarte levantar
                 D           Em
    Que toda la gente pueda ver
                    C            G
    Que el es el camino al Cielo//
    
    Puente:
    //G D Em C//
    E -3----3-5--3-5-7-8-7-5-5-3--3----3-5-3--5-7-8-5----0-3-0-3-|
    
  •    G5       D5        E5         C5
    e|--------------------------------------|
    B|--------------------12-13-12----------|
    G|-12----12-14--12-12----------14-14-12-| (X2)
    D|----12--------------------------------|
    A|--------------------------------------|
    E|--------------------------------------|
    
    :::::::::::ESTROFA:::::::::::
    
      G5          D5         E5
    Queremos a Cristo proclamar
                  C5         G5
    Como un estandarte levantar
                 D5          E5
    Que toda la gente pueda ver
                    C5           RIFF 1
    Que el es el camino al Cielo
    
                RIFF 1
    
  • +
    ¡Colabora con nosotros!
    Envíanos tu versión de esta canción

Letra de Queremos Ver
Estos son los tonos originales pero en las estrofas
si se quiere que se oiga un poco mas "Lleno" se le
puede agregar D después de C
o se pueden cambiar los tonos así:
//Queremos a Cristo proclamar
Como un estandarte levantar
Que toda la gente pueda ver
Que el es el camino al Cielo//
//Queremos ver, queremos ver
A Jesucristo como Rey//
Paso a paso hacia el frente
Poco a poco a ganar
La oración las fortalezas
Todas caen todas caen y caen y caen
Y caen
Que Dios les bendiga




[Queremos Ver chords][Queremos Ver cifra]
© LaCuerda.net · aviso legal · privacidad · es · en · pt · contacto