Acordes de Guitarra » M »Marco Barrientos » Que los cielos se abran hoy (Tab)

Que los cielos se abran hoy
Marco Barrientos

Letras, Acordes y Tabs para Guitarra, Bajo y Ukulele

  • intro  Dm - Bb  (Esta parte va con 5as)
    
    Dm
    Que tu fuego queme
    Bb
    Que tu viento sople
    Dm                Am
    Tu poder queremos ver
    Dm
    Tu presencia sane
    Bb
    Tu verdad libere
    Dm                      C
    Que los cielos se abran hoy
    
    Em
    Potestades caen
    C
    Principados huyen
    Em               Bm
    
  • e----10-10-10-12-12-12-13-13-13-10-10-10-12-12-13-13-----------
    B----10-10-10-10-10-10-10-10-10-10-10-10-10-10-10-10-----------
    G--------------------------------------------------------------
    D--------------------------------------------------------------
    A--------------------------------------------------------------
    E--------------------------------------------------------------
    
    e-----------------------------12-12-12-12-12-12-12-12----------
    B----11-11-11-11-11-11-11-11--11-11-11-11-11-11-11-11----------
    G----10-10-10-10-10-10-10-10-----------------------------------
    D--------------------------------------------------------------
    A--------------------------------------------------------------
    E--------------------------------------------------------------
    
    //
    XXXXXXXXXXXXXXXXXXXXXXXXXXXXXXXXXXXXXXXXXXXXXXXXXXXXXXXXXXXX
    ------------------------------------------------------------>
    XXXXXXXXXXXXXXXXXXXXXXXXXXXXXXXXXXXXXXXXXXXXXXXXXXXXXXXXXXXX
    //
    e---------------------------------------------------
    
  • e----10-10-10-12-12-12-13-13-13-10-10-10-12-12-13-13-----------
    B----10-10-10-10-10-10-10-10-10-10-10-10-10-10-10-10-----------
    G--------------------------------------------------------------
    D--------------------------------------------------------------
    A--------------------------------------------------------------
    E--------------------------------------------------------------
    
    e----13-13-13-13-13-13-13-13--12-12-12-12-12-12-12-12----------
    B----11-11-11-11-11-11-11-11--11-11-11-11-11-11-11-11----------
    G--------------------------------------------------------------
    D--------------------------------------------------------------
    A--------------------------------------------------------------
    E--------------------------------------------------------------
    
    //
    XXXXXXXXXXXXXXXXXXXXXXXXXXXXXXXXXXXXXXXXXXXXXXXXXXXXXXXXXXXX
    ------------------------------------------------------------>
    XXXXXXXXXXXXXXXXXXXXXXXXXXXXXXXXXXXXXXXXXXXXXXXXXXXXXXXXXXXX
    //
    e---------------------------------------------------
    
  •     Dm7
     e|-10-10-10-12-12-12-13-13-13-10-10-10-12-12-13-13-|
     B|-10-10-10-10-10-10-10-10-10-10-10-10-10-10-10-10-|
    
        Gm7
     e|-13-13-13-13-13-13-13-12-12-12-12-12-12-12-12-12-|
     B|-11-11-11-11-11-11-11-11-11-11-11-11-11-11-11-11-|
    
     G|-10-10-10-7-7/9-10-10-14-14-12-12/10-|
     D|-------------------------------------|
     A|-8--8--8--5-5/7-8--8--12-12-10-10/8--|
    
             Dm7
    Verso 1: Que tu fuego queme
             Bb
             Que tu viento sople
             Dm7               Am7 (A5-E5-G5-A5)
             Tu poder queremos ver
             Dm7
             Tu presencia sane
    
  • Intro:  Guitarra ritmica 1ª vuelta, 2ª entra bajo
    e|------6---3-5------5-|
    a|-2s5-----------1-3---|
    d|---------------------| x2 entramos al verso en D
    g|---------------------|
    
    Verso 1: Que tu fuego queme...
    e|------6s1-----5m-5m-3-5----|
    a|-5s1------5s1----------2s3-|
    d|---------------------------|
    g|---------------------------|
    
    Verso 2: Tu precencia sane...
    e|------6s1--------------|
    a|-5s1------5s1--3-3-3-3-|
    d|-----------------------|
    g|-----------------------|
    
    Coro: Potestades caen...
    e|------------------------------
    a|-7m-7m-7m-0-5-7-7m--0-5-0-5-7-
    d|------------------------------
    g|------------------------------
    
    ----------------------------|
    3m-3m-3m-0-2-2m--0-2-0-2-3--| x3
    ----------------------------|
    ----------------------------|
    
    |----------------------------|
    |-7m-7m-7m-0-5-7-7m-7-7-7--5-|
    |----------------------------|
    |----------------------------|
    
    Puente: Santo Santo!...
    e|----------------------------------------------7(4)-|
    a|-3(4)---------5(4)---------7(4)-------
  • Hola que tal, Dios les bendiga soy josue de nuevo
    y en esta ocasión quiero compartir con ustedes esta
    canción que me gusta en lo personal mucho por su
    letra, es una canción un poco complicada al principio
    por que lleva varios adornos del bajo así que,
    escuchen muy bien la canción mientras miran la esta
    tablatura, los números entre paréntesis son los
    minutos y segundos exactos donde se oyen esos
    adornos.
    
    Cualquier duda, comentario, petición de alguna canción
    en guitarra o bajo eléctrico contáctenme a mi mail:
    
    soyfang@hotmail.com
    
    o en faceboook:
    
    Josue Osorio Jimenez
    
    
    Artista: Marco Barrientos
    Álbum: Viento Mas Fuego
    Canción: Que Los Cielos Se Abran Hoy
    Instrumento: Bajo Eléctrico
    
    
    Intro
                                 (0:05)                 (0:08)    (0:11)
    G|-------------------------------------------------------------------
    D|-------------------------------------------------------------------
    A|---5----------------------------3-----------------5---------3s5-3--
    E|-----
  • +
    ¡Colabora con nosotros!
    Envíanos tu versión de esta canción

Letra de Que los cielos se abran hoy
Que tu fuego queme
Que tu viento sople
Tu poder queremos ver
Tu presencia sane
Tu verdad libere
Que los cielos se abran hoy
Potestades caen
Principados huyen
Ante ti glorioso Rey
Libres en tu muerte
Salvos por tu sangre
Poderoso vencedor
// Santo, Santo
Digno, Digno
Santo, Santo
Fuerte, eterno Dios//




[Que los cielos se abran hoy chords][Que los cielos se abran hoy cifra]
© LaCuerda.net · aviso legal · privacidad · es · en · pt · contacto