Acordes de Guitarra » M »Marco Barrientos » Me vuelvo a tí (Tab)

Me vuelvo a tí
Marco Barrientos

Letras, Acordes y Tabs para Guitarra, Bajo y Ukulele

  • Intro: C#m G#m A F#m B
    
    C#m     G#m
    Crea en mi
                 A             F#m     B
    Un limpio corazon como el tuyo Señor
    C#m        G#m
    Renueva en mi
          A            F#m     B
    Un espiritu que te ame Señor
    
    A       B     C#m
    Muestra tu bondad
    C#m    D#dim   E
    Por tu gran misericordia
    A     B      C#m
    Lava mi interior
    D              B
    Avivame, oh Dios
    
    
  • Intro: C#m G#m A F#m B
    FIGURA DEL INTRO 0:0
    e|-------12-11--------------------
    B|-9---9------12------------------
    G|--------------------------------
    D|--------------------------------
    A|--------------------------------
    E|--------------------------------
    
    e|--------------------------------
    B|-5-7-9--7-9---5-7-9--7-9--------
    G|--------------------------------
    D|--------------------------------
    A|--------------------------------
    E|--------------------------------
    
    e|--------------------------------
    B|---5--12---5s7-7--9-------------
    G|-6------------------------------
    D|--------------------------------
    
  • Intro: C#m G#m A F#m-B (usa suspendidas)
    e|---12-11-----------------------------7-----------
    B|--9--9-12----7-9--7-9---7-9---7-9---5-----7-9-(9)
    G|-9---------9----(9)----9----(9)----6---6s8-------
    D|------------------------------------------------x2
    
    Verso:
    C#m7     G#m
    Crea en mi
                 Asus4          F#msus4  Bsus2
    Un limpio corazon como el Tuyo Señor
    C#m        G#m7
    Renueva en mi
          A            F#m7     B
    Un espiritu que Te ame Señor
    
    Coro:
    A       B     C#m7
    Muestra Tu Bondad
    C#m    B/D#   E
    
  • e|-------12-12/11----|
    B|----12----------12-|    Se Usa un CAPOTRASTE
    G|-13----------------|    en esta cancion para ayudar
                              a que los bajos suenen mas agugos
    e|---------------|        asi que no tengas miedo de rasguear
    B|------10----10-| (X2)   todas las cuerdas
    G|-9-11----11----|
                              CAPOTRASTE en el "4" Traste
    e|-----7-------|
    B|---5---5/7-9-|
    G|-6-----------|
    
    ::::::::::ESTROFA::::::::::
    
    Crea en mí
    Un limpio corazón como el tuyo Señor
    Renueva en mí
    Un espíritu que te ame Señor
    
    :::::::PRE-CORO:::::::::
    
  • hola, les voy a enceñar esta cancion espero que les guste!
    
    Intro:
    G|---------------------------------------------
    D|---------------------------------------------
    A|-4-4(6)--------------------2-2-2-2----------- x2
    E|-------4-4(6)-5-5(6)-2-2-2-------------------
    
    Verso: ''Crea en mi,un limpio...''
    G|---------------------------------------------
    D|---------------------------------------------
    A|-4-4444-4-----------------------2-2---------- x2
    E|---------4-4444-4-5-5555-5--2-2--------------
    
    Interlude: ''Muestra tu bondad...''
    G|----------------------------------------------------
    D|----------------------------------------------------
    A|-----2(4)-4(10)-6(4)-7(4)-----2(4)-4(4)-5(8)-2(8)---
    E|-5(4)---------------------5(4)----------------------
    
    Despues hace asi:
    
    Verso
    Interlude
    Solo de Guitarra (toca las notas del intro)
    
    Despues empiesa a decir ''jesus,jesus...''
    (2:49 seg)
    G|---------------------------------------------
    D|---------------------------------------------
    A|-7-77777--2-2222
  • +
    ¡Colabora con nosotros!
    Envíanos tu versión de esta canción

Letra de Me vuelvo a tí
Crea en mi
Un limpio corazon como el tuyo Señor
Renueva en mi
Un espiritu que te ame Señor
Muestra tu bondad
Por tu gran misericordia
Lava mi interior
Avivame, oh Dios
GUITAR SOLO: C#m G#m A F#m B
Jesus, Jesus
Hoy me vuelvo a Ti
Jesus, Jesus
Brilla sobre mi




[Me vuelvo a tí chords][Me vuelvo a tí cifra]
© LaCuerda.net · aviso legal · privacidad · es · en · pt · contacto