Acordes de Guitarra » M »Marco Barrientos » El señor está en este lugar (Tab)

El señor está en este lugar
Marco Barrientos

  • Letra y Acordes
    INTRO://Em G C// D Bsus2 X2 Em
    
    e)------7-------------7------------------------
    b)--8------------8------------7b8--------------
    g)-----------9-----------9-----------7---------
    
    e)------7------------7----12---------------------
    b)--8------------8-------------19b20--------17---
    g)-----------9--------------------------19-------
    
    
    Aqui tocan el bajo y la bateria
    
    Verso:
    Em          C            D
    EL SEÑOR ESTA EN ESTE LUGAR (se repite 4 veces)
    
    
    Coro:
    C           D
    
  • Letra y Acordes
         Dm        Bb         C
    ////El Señor Esta En Este Lugar////
    
    Coro:
         Bb          C             Dm        F
    ////Para Sanar, Para Librar Para Romper Toda Obra De Maldad
    Bb            C           Dm
    Para Sanar, Para Librar Mi Alma////
    
    (Despues Va Al Verso Otra Vez!!)
         Bb           C             Dm        F
    ////Para Sanar, Para Librar Para Romper Toda Obra De Maldad
    Bb            C            Dm
    Para Sanar, Para Librar Mi Alma////
    
    "Alli Ellos Hacen Una Quinta Con Las Notas(Dm Y Am)"
    Al Final Hacen Quintas
    
    Estas notas De Abajo son las que deben de tocar con las de Arriba
    Dm Bb C
    
  • Letra y Acordes
         Em        C          D
    ////El Señor Esta En Este Lugar////
    
    Coro:
         C           D             Em        G
    ////Para Sanar, Para Librar Para Romper Toda Obra De Maldad
    C             D           Em
    Para Sanar, Para Librar Mi Alma////
    
    (Despues Va Al Verso Otra Vez!!)
         C            D             Em        G
    ////Para Sanar, Para Librar Para Romper Toda Obra De Maldad
    C             D            Em
    Para Sanar, Para Librar Mi Alma////
    
    Verso:
         Fm        C#         D#
    ////El Señor Esta En Este Lugar////
    
    Coro:
    
  • Tablatura
    Em          C            D
    EL SEÑOR ESTA EN ESTE LUGAR (se repite 4 veces)
    
    
    C           D
    PARA SANAR, PARA LIBRAR
    Em
    PARA ROMPER TODA OBRA DE MALDAD (se repite 2 veces)
    C           D                Em
    PARA SANAR, PARA LIBRAR MI ALMA
    
    C     D   C     D   C     D          Em
    EL SEÑOR, EL SEÑOR, EL SEÑOR ¡ESTA AQUI!
    
    
    Bueno esa es la intro del album levantate y resplandece,
    trabajo en el intermedio,
    Espero que sea de Bendicion!
    
    NOTA:En la intro pueden hacer los bend (7b8,19b20) o pueden
    
  • Tablatura
    E|----0------------5-------------1---------1---------1------------------
    B|----1------------5-------------3---------1---------3------------------
    G|----0------------5-------------2---------2---------3------------------
    D|----2------------7-------------0---------3---------3------------------
    A|----3------------7-----------------------3---------1------------------
    E|-----------------5-----------------------1----------------------------
    
    E|-1-------1--------1------------------0--0--0--0--0--0--0--0--0--0--0--
    B|-3-------1--------3------------------1--1--1--1--1--1--1--1--1--1--1--
    G|-2-------2--------3------------------0--0--0--0--0--0--0--0--0--0--0--
    D|-0-------3--------3------------------2--2--2--2--2--2--2--2--2--2--2--
    A|---------3--------1------------------3--3--3--3--3--3--3--3--3--3--3--
    E|---------1------------------------------------------------------------
    
    E|-0--0--0--0--0--5--5--5--5--5--5--5--5--5--5--5--5--5--5--5--5--------
    B|-1--1--1--1--1--5--5--5--5--5--5--5--5--5--5--5--5--5--5--5--5--------
    G|-0--0--0--0--0--5--5--5--5--5--5--5--5--5--5--5--5--5--5--5--5--------
    D|-2--2--2--2--2--7--7--7--7--7--7--7--7--7--7--7--7--7--7--7--7--------
    A|-3--3--3--3--3--7--7--7--7--7--7--7--7--7--7--7--7--7--7--7--7--------
    E|----------------5--5--5--5--5--5--5--5--5--5--5--5--5--5--5--5--------
    
  • Tab p/Bajo
    S = Slap (golpe de pulgar a cuerda)
    p = Pop  (Jalar cuerda)
    
    Intro:
      E...    G...  C...  E...   G...  C...   D...  B...
    e|-0------3-----------0------3--------------------|
    a|--------------3------------------3------5-----2-|
    d|------------------------------------------------| x2
    g|------------------------------------------------|
    
    Despues de ese intro
    entra este tab hasta entrar
    al verso:
    
    Pre-verso:
    e|-0-----3-5----------5----0-|
    a|-----------3----2----------|
    d|---------------------------|
    g|---------------------------|
    
    
    Verso: el señor esta en este lugar...
    e|-0----3-5-----------------|
    a|----------3----2---3----5-|
    d|--------------------------|
    g|--------------------------|
    
    
        C...            D...   E...
    ///Para sanar para librar para romper toda obra de maldad///
    
    Pre-verso:
    
    e|-0-----3-5----------5----0-|
    a|-----------3----2----------|
    d|---------------------------|
    g|---------------------------|
    
    Verso:(Con Slap y pop) "El señor esta...
    e|-0S----0S-----------------
    a|----7
  • Piano (Teclados)
        REm        DO       SIm      REm        DO       SIm
        E  B B  E B  A  A  A G F#   E   B B  E B  A  A  A  G F#
       EL señor esta en este lugar, el señor esta en este lugar
       DO          RE
       B  A A  B   B A  A  A
       para sanar ,para librar
        MIm
       B B   A B   B  A B A  B  A   B
       para romper toda obra de maldad
        DO          RE            MIm
       B A  A  A    B A   A A   F# G E
       para sanar , para librar mi alma.
       DO    RE  DO    RE  DO    RE       MIm
       *C  B A   *C  B A   *C  B A   B *D  *E
       El señor, el señor ,el señor  esta aquí!
    
    * Es una octava arriba
    
     hecho por Cristian Email:narisroja77@hotmail.com
  • +
    ¡Colabora con nosotros!
    Envíanos tu versión de esta canción

Letra de El señor está en este lugar
Aqui tocan el bajo y la bateria
Verso:
EL SEÑOR ESTA EN ESTE LUGAR (se repite 4 veces)
PARA SANAR, PARA LIBRAR
PARA ROMPER TODA OBRA DE MALDAD
PARA SANAR, PARA LIBRAR MI ALMA
Intermedio:
EL SEÑOR, EL SEÑOR, EL SEÑOR, EL SEÑOR ¡ESTA AQUI!
BENDICIONES¡¡¡¡¡¡¡¡¡



© LaCuerda.net · aviso legal · privacidad · contacto