Acordes de Guitarra » M »Marco Barrientos » Digno de honor (Tab)

Digno de honor
Marco Barrientos

  • Letra y Acordes
    B                B/G#
    Una alabanz un clamor
    A          F#m      B
    la crecion alza su voz
    B                B/G#
    es como un rio de adoración
    A          F#m      B
    que fluye de nuestro corazón
    
    A              C#m B
    santo, eres santo
    A             E     B   A
    todopoderoso digno de honor
    A              C#m B
    digno, eres digno
    A                  E
    todos lo pueblos cantan
    B            A
    que tu eres señor
  • Letra y Acordes
    B - B6 - A - F#m7 - B
    
    VERSO
    B                 B6
    Una alabanza, un clamor
    A          F#m7    B
    La creación alza su voz
    B                   B6
    Es como un rio de adoración
    A             F#m7        B
    Que fluye de nuestro corazón
    
    CORO
    A           C#m     B
    Santo, eres Santo
    A       E      B          A
    Todopoderoso, digno de honor
    A            C#m   B
    Digno, eres Digno
    A          E                   B        A
    
  • Tablatura
    E-----7-----7----7-----7-----7----7--9-------------------------------
    B--7-----7-----7----9-----9-----9-------12--10--12-10-12-------------
    G---------------------------------------------------------11v--------
    D--------------------------------------------------------------------
    A--------------------------------------------------------------------
    E--------------------------------------------------------------------
    
    
    E-----7-----7----7-----7-----7----7--9--------------------12--11-----
    B--7-----7-----7----9-----9-----9-------12--10--12-10-12-------------
    G--------------------------------------------------------------------
    D--------------------------------------------------------------------
    A--------------------------------------------------------------------
    E--------------------------------------------------------------------
    
    
    B                   E
    una alabanza un clamor
    A        F#m         B
    la creacion alza su voz
    
  • Tablatura
    G-------------------------------------------------------
    B-7-12-7-12-7-12-9-12-9-12-9-12-14-12-10-9-7-5-7---5-4--
    e-------------------------------------------------------- X2
    (SE TOCA ESTA MELODIA DESPUES QUE SE CANTA "LA CREACION ALZA SU VOZ)
    G---------
    B-5-4-2-4-5
    e----------
    B                 B6     Asus
    Una Alabanza un clamor,
           F#m7         Bsus-B
    la creación alza su voz
                         B6     Asus
    Es como un rio de adoración,
                   F#m7      Bsus-B
    que fluye de nuestro corazón
    
    -CORO-
    (La guitarra cuerdea en esta parte no más, en  la primera vez)
    Asus            C#m7-B
    Santo       eres santo,
    
  • +
    ¡Colabora con nosotros!
    Envíanos tu versión de esta canción

Letra de Digno de honor
Una alabanz un clamor
la crecion alza su voz
es como un rio de adoración
que fluye de nuestro corazón
santo, eres santo
todopoderoso digno de honor
digno, eres digno
todos lo pueblos cantan
que tu eres señor



© LaCuerda.net · aviso legal · privacidad · contacto