Acordes de Guitarra » M »Marco Barrientos » Cantamos Aleluya (Tab)

Cantamos Aleluya
Marco Barrientos

Letras, Notas, Punteos, Tablaturas y Acordes de Guitarra (Tabs & Chords)

  • Letra y Acordes
    ////FA# MI RE////
    
    FA#5    MI5          RE5
      Por tus obras por tu bien
    RE5
      Por tu Amor y tu Poder
    FA#5    MI5          RE5
      Porque tu nunca cambias
    FA#5    MI5          RE5
     Tu Grandeza, tu Gloria
    RE5
    Tu Bondad nos alcanza
    FA#5    MI5          RE5
    Porque nadie es como tu
    DO#5
    Tu eres Rey…
             Coro
     LA5     MI     FA#5   RE5
    //Cantamos aleluya, aleluya
     LA        MI    RE
    
  • Letra y Acordes
    Intro: F#m - E - D (x4)
    
    F#m         E         D
    Por tus obras, por tu bien
    
    Por tu amor y tu poder
    F#m      E           D
    Porque Tú nunca cambias
    F#m     E           D
    Tu grandeza, tu gloria
    
    Tu bondad nos alcanza
    F#m     E            D
    Porque nadie es como Tu
        C#m
    Eres Rey
    
    
    CORO:
        A      E/G#   F#m   D
    
  • Tablatura
    Intro F#m - E - D
    
    Riff bajo
    E---7s9-7-5-4-5-7--2--- Lo que hace el bajo cuando esta en D
    A----------------------
    D----------------------
    G----------------------
    
    verso 1)
    
    F#m          E            D
        Por tus obras, por tu bien
           D            F#m
    por tu amor y tu poder
           E          D      D
    porque tu nunca cambias
    
    F#m        E           D
        Tu grandeza, Tu gloria
          D          F#m
    
  • Tab p/Bajo
    buenas, les voy a enseñar este tema que esta muy bueno en el bajo!
     no es tan dificil..
    
    Intro:
    G|---------------------------------
    D|-11-9----------9-----------------
    A|------12-11-12---9(4)-7(4)-5(4)-- X2
    E|---------------------------------
    
    Verso: Por tus obras....(esta parte es media trabada escuchenla!)
    G|------------------------------
    D|------------------------------
    A|-9(5)--7(5)-5(5)--5(5)-------- X4
    E|------------------------------
    
    Coro: Cantamos aleluya.....
    G|----------------------------------------
    D|----------------------------------------
    A|-----------------5(4)----------5(8)----- X2
    E|--5(4)-4(4)--2(4)-----5(4)-4(4)---------
    
    Intermedio:
    G|---------------------------------------------------
    D|-------------------11-9----------9-----------------
    A|9(4)-7(4)-5(4)----------12-11-12---9(4)-7(4)-5(4)--
    E|---------------------------------------------------
    
    despues hace asi:
    Verso
    Coro
    Break:
    G|------------------------------------------------------
    D|----------------------22-
  • Tab p/Bajo
    Intro:
    G|---------------------------------
    D|---------------------------------
    A|-14-15-14-12-11-12-14-9(4)-7(4)-5(4)-- X2
    E|---------------------------------
    
    Verso: Por tus obras por tu fe……
    (esta parte es un poco pausada en el cambio de notas)
    G|------------------------------
    D|------------------------------
    A|-9(4)--7(4)-5(4)--5(4)-------- X4
    E|------------------------------
    
    Antes de entrar al coro quédense marcando el tiempo en C#
    Coro: Cantamos aleluya.....
    (tienes que cambiar a las notas con el mismo ritmo)
    G|----------------------------------------
    D|----------------------------------------
    A|----------------------------------------
    E|--5(6)-4(6)-2(6)-10(6)-5(6)-4(4)-10(10)-X2
    
    Intermedio, volvemos hacer casi lo mismo del intro
    G|---------------------------------------------------
    D|---------------------------------------------------
    A|9(4)-7(4)-5(4)-14-15-14-12-11-12-14-9(4)-7(4)-5(4)--
    E|---------------------------------------------------
    
    Luego sigue la parte: el venció
  • Piano (Teclados)
     Cantamos Aleluya
    
     Intro
    
     F#m E D
    
     Mano Izq.     Mano Der.
     F# F# X4      C# F# G# A G# A <-----l
     E  E  X4      A  B  E  F# G#  <-----l---Estos Se Tocan Arpejeados
     D  D  X8      A  E  F# E F# X2<-----l
    
        El Intro X2 Solo Piano
                 X2 Todos Los Intrumentos
    
     La Intro Toca Lo Mismo En El Verso Exepto En "Tu Eres rey"
    
     Verso 1
    
     F#m          E            D
         Por Tus Obras, Por Tu Bien
            D            F#m
     Por Tu Amor Y Tu Poder
            E          D      D
     Porque Tu Nunca Cambias
    
     F#m        E           D
         Tu Grandeza, Tu Gloria
           D          F#m
     Tu Bondad Nos Alcanza
             E           D            En La Parte " Tu Eres Rey "
     Por Que Nadie Es Como Tu         Mano Izq.     Mano Der.
             C#m                      C# C# X8      A  B  E  F# G#.
     Tu Eres Rey                                     lArpejeadosl
    
    
      Coro X2 :
     A        E/G#    F#m   D
     Cantamos Aleluya,      Aleluya
     A        E/G#       D
     Cantamos Aleluya Al Rey
    
     Coro
    
     Mano Izq
  • +
    ¡Colabora con nosotros!
    Envíanos tu versión de esta canción

Letra de Cantamos Aleluya
Por tus obras por tu bien
Por tu Amor y tu Poder
Porque tu nunca cambias
Tu Grandeza, tu Gloria
Tu Bondad nos alcanza
Porque nadie es como tu
Tu eres Rey…
//Cantamos aleluya, aleluya
Cantamos aleluya, al rey//
esto es como un punteo
Al Rey, que venció a la muerte
Por los siglos reina
Sea la Gloria por siempre
Al Rey, que extendió su mano
Para darnos vida
Sea la Gloria por siempre
//Cantamos aleluya, aleluya
Cantamos aleluya, al rey//



© LaCuerda.net · Aviso Legal · Privacidad