Acordes de Guitarra » M »Marc Anthony » Hasta ayer (Tab)

Hasta ayer
Marc Anthony

Letras, Acordes y Tabs para Guitarra, Bajo y Ukulele

  •   MIm   MI  MI7  LAm  RE   RE7  SOL  DO   SI7  MI(2)
    e|-7----7----7----5----5----5----3----3----2----0--
    b|-8----9----9----5----7----7----3----5----4----0--
    G|-9----9----7----5----7----5----4----5----2----1--
    D|-9----9----9----7----7----7----5----5----4----2--
    A|-7----7----7----7----5----5----5----3----2----2--
    E|-7----7----7----5----5----5----3----3----2----0--
    
    
    
    MIm
    Comprendan que no pretendo ofenderla
        MI  MI7                   LAm
    tampoco le estoy haciendo un reproche
    LAm
    usted es dueƱa de su vida
    DO                    SI7 DO SI7
    de su cuerpo y de sus noches
    MIm
    confieso me enamorƩ como un niƱo
    
  • Em
     Comprenda que no pretendo ofenderla
       E     E7                     LAm
     tampoco le estoy haciendo un reproche
     
     Usted es dueƱa de su vida
     C                     B7  C  B7
     De su cuerpo y de sus nooooches
    
     Confieso me enamore como un niƱo
     y siento que no estoy arrepentido
     disfrute de tu experiencia 
     Hasta calmar mi ansiedad
    
           C
     Fui dueƱo de su halcoba
                B7
     y de su almohada
          C
     La tuve beso a beso
    
  • Hasta Ayer
    
    INTRO:
    
    G|-----------------------------------------|
    D|-----------------------------------------|
    A|----7----------------------------------7-|
    E|--------------------------------7--------|
         Comprendan que no pretendo ofenderla,
    
    G|-----------------------------------------|
    D|-----------------------------------------|
    A|-----------------------------------------|
    E|---------5-------------------------------|
      tampoco le estoy haciendo un reproche
    
    G|-----------------------------------------|
    D|-----------------------------------------|
    A|-----------------------------------------|
    E|-------------------------5--7--8---------|
      usted es dueƱa de su vida
    
    G|-----------------------------------------|
    D|-----------------------9-----------------|
    A|-----------------------------------------|
    E|----------------7-------------7--5--3--2-|
      de su cuerpo y de sus nooooches
    
    
    G|-----------------------------------------|
    D|---------9--------------------9----9-----|
    A|-7---------------
  • +
    Ā”Colabora con nosotros!
    EnvĆ­anos tu versiĆ³n de esta canciĆ³n
  • Tutorial
    Hasta ayer- como tocar en guitarra -Marc Anthony
    4:28

Letra de Hasta ayer
Comprendan que no pretendo ofenderla
tampoco le estoy haciendo un reproche
usted es dueƱa de su vida
de su cuerpo y de sus noches
confieso me enamorƩ como un niƱo
y siento que no estoy arrepentido
disfrute de tu experiencia
hasta calmar mi ansiedad
fuƭ dueƱo de su alcoba
y de su almohada
la tuve beso a beso, piel con piel
y el sol me sorprendiĆ³ por su ventana
cansado de delirio y de placer
hasta ayer, hasta ayer
Y perdona usted seƱora
pero cuando el alma llora
el silencio no es remedio
para calmar el sufrir
Hasta ayer, hasta ayer
mi dulce dama elegante
supe que tienes otro amante
al que quizƔs con el tiempo
le haras lo mismo que a mi
Interludio:
fuƭ dueƱo de su alcoba
y de su almohada
la tuve beso a beso, piel con piel
y el sol me sorprendiĆ³ por su ventana
cansado de delirio y de placer
hasta ayer, hasta ayer
Y perdona usted seƱora
pero cuando el alma llora
el silencio no es remedio
para calmar el sufrir
Hasta ayer, hasta ayer
mi dulce dama elegante
supe que tienes otro amante
al que quizƔs con el tiempo
le haras lo mismo que a mi
FuƩ enredƔndome en sus besos
hasta que me volviĆ³ preso
y en su juego despiadado me
entregĆ³ con su pasiĆ³n
luego vino la traiciĆ³n el cual si
yo fuera un niƱo
me dijo que su cariƱo lo
brindaba a quien quisiera
eres otra bandolera que jugo
con mi querer
ya no creo mƔs mentiras
ni en el llanto de mujer
Yo te querĆ­a tanto mujer
Yo te adoraba tanto mujer...
(bis)




[Hasta ayer chords][Hasta ayer cifra]
© LaCuerda.net · aviso legal · privacidad · es · en · pt · contacto