Acordes de Guitarra » M »Manuel Turizo » Una lady como tú (Tab)

Una lady como tú
Manuel Turizo

Letras, Acordes y Tabs para Guitarra, Bajo y Ukulele

  • D  Bm  G A
    D  Bm  G A
    
    D                       Bm
    Sé que buscas a alguien que
                     G
    Te vuelva a enamorar
                     A
    Que no te haga sentir mal
    D                 Bm
    Sé que hubo otro que
                  G
    No supo valorar
                        A
    Lo que tenías para dar
    
    
    D
    Sé que tal vez
               Bm
    
  •                 E        C#m           A         B
    E|--12/1--|-----------7-----------|--7----------------|-----------------------|
    B|--------|--7--7h9-----9-7--7h9--|----9-7-----7-9-7--|--7-7h9-7--------------|
    G|--------|-----------------------|--------9----------|-----------9-8--8/9----|
    D|--------|-----------------------|-------------------|-----------------------|
    A|--------|-----------------------|-------------------|-----------------------|
    e|--------|-----------------------|-------------------|-----------------------|
    
    
    
    E                      C#m
    Sé que buscas a alguien que
                      A
    Te vuelva a enamorar
                       B
    Que no te haga sentir mal
    E                C#m
    Sé que hubo otro que
                   A
    No supo valorar
    
  •            B        G#m      E       F#            B
    E;--7/2--/-------2--------2---------------------------
    B;-------/-2-4----4-2-4----4-2---2-4-2---2-2-4-2-0-0--
    G;-------/----------------------------------------3---
    D;-------/--------------------------------------------
    A;-------/--------------------------------------------
    E;-------/--------------------------------------------
    
    
     B                      G#m
    Sé que buscas a alguien que
                      E
    Te vuelva a enamorar
                          F#
    Que no te haga sentir mal
     B               G#m
    Sé que hubo otro que
                 E
    No supo valorar
                        F#
    
  • E|---------------------------------------------------|
    B|---------0-0-------0--0-0--------------------------|
    G|-4-----------2-1-2--------2-1-2--------------1-----|
    D|--------------------------------4--4-4-2-4-2---4-4-|
    A|---------------------------------------------------|
    e|---------------------------------------------------|
    
    Sé... que hubo otro que
    No supo valorar
    Lo que tenías para dar
    
    E|---------------------------------------------------|
    B|---------0-0-------0--0-0--------------------------|
    G|-4-/2/1------2-1-2--------2-1-2--------------1-----|
    D|--------------------------------4--4-4-2-4-2---4-4-|
    A|---------------------------------------------------|
    e|---------------------------------------------------|
    
    *
    
    
  • +
    ¡Colabora con nosotros!
    Envíanos tu versión de esta canción

Letra de Una lady como tú
Sé que buscas a alguien que
Te vuelva a enamorar
Que no te haga sentir mal
Sé que hubo otro que
No supo valorar
Lo que tenías para dar
Sé que tal vez
Te hizo sufrir
Te hizo llorar
Te supo lastimar
Sé que tal vez
Ya sabes de mí
Voy detrás de ti
No te voy a mentir
Voy buscando una lady
Como tú la quiero así
Quiero que te enamores
Como estoy yo de ti
A casa enviarte flores
Y en tu nombre escribir
Mil canciones de amores
Pa’ que pienses en mí
Como yo pienso en ti
Yo quiero hablarte
Quiero hipnotizarte
Un estrella traerte
Hasta el cielo bajarte
Cantarte al oído
Y ver tu piel al erizarte
Llevarte lentamente
donde estemos tu y yo aparte
Y si te provoca
Te beso la boca
Sueño con tocarte
Quitarte la ropa
No confundas mi intención
Por decir cosas locas
Te quiero
Pero tu cuerpo también me provoca
Poderte complacer
Cada uno de tus sueños conocer
Hablar juntos hasta el amanecer
Que seas mi mujer
Sea yo el único que te de placer
Cada día de mi vida yo poderte tener
Voy buscando una lady
Como tú la quiero así
Quiero que te enamores
Como estoy yo de ti
A casa enviarte flores
Y en tu nombre escribir
Mil canciones de amores
Pa’ que pienses en mí
Como yo pienso en ti [X2]
Sé que buscas a alguien que
Te vuelva a enamorar
Que no te haga sentir mal
Sé que hubo otro que
No supo valorar
Lo que tenías para dar
Voy buscando una lady
Como tú la quiero así
Quiero que te enamores
Como estoy yo de ti
A casa enviarte flores
Y en tu nombre escribir
Mil canciones de amores
Pa’ que pienses en mí
Como yo pienso en ti




[Una lady como tú chords][Una lady como tú cifra]
© LaCuerda.net · aviso legal · privacidad · es · en · pt · contacto