Tablatura para Guitarra de Manuel Turizo: Una lady como tú
Conexión · Inscripción
Letras y Acordes
Pantalla Completa
Imprimir
Versión Texto
Añadir Favorito
Otras Versiones

Mostrar Diagramas
Desfile Automático
Manipular Acordes
Formato del Texto


Una lady como tú(TAB)

Manuel Turizo

calidad:
mtrz0012
AUTOR: Manuel Turizo
ALBUM: desconocido
Enviado por Kevin
Sé que buscas a alguien que
Te vuelva a enamorar
Que no te haga sentir mal

E|---------------------------------------------------|
B|---------0-0-------0--0-0--------------------------|
G|-4-----------2-1-2--------2-1-2--------------1-----|
D|--------------------------------4--4-4-2-4-2---4-4-|
A|---------------------------------------------------|
e|---------------------------------------------------|

Sé... que hubo otro que
No supo valorar
Lo que tenías para dar

E|---------------------------------------------------|
B|---------0-0-------0--0-0--------------------------|
G|-4-/2/1------2-1-2--------2-1-2--------------1-----|
D|--------------------------------4--4-4-2-4-2---4-4-|
A|---------------------------------------------------|
e|---------------------------------------------------|

*

Sé que tal vez te hizo sufrir
Te hizo llorar, te supo lastimar

E|--------------------------------------------|
B|--------------------------------------------|
G|------------2-1-----------------------------|
D|-2-2-1-2--2-----4-2----2-2-1-2----2-2-2-1---|
A|---------------------2----------2---------2-|
e|--------------------------------------------|

Sé que tal vez ya sabes de mí
Voy detrás de ti, no te voy a mentir

E|--------------------------------------------|
B|--------------------------------------------|
G|------------2-1-----------------------------|
D|-2-2-1-2--2-----4-2----2-2-1-2------2-2-1---|
A|---------------------2----------2-2-------2-|
e|--------------------------------------------|


CORO:

Voy buscando una lady
Como tú, la quiero así
Quiero que te enamores
Como estoy yo de ti

E|----------------------------------------------------------|
B|----------------------------------------------------------|
G|----------------------------------------------------------|
D|-----2-2-1-1-2------2-2-2-1--------2-2-1-1-2--2-2-2-2-4-4-|
A|-2-2------------2-2---------2--2-2------------------------|
e|----------------------------------------------------------|

A casa enviarte flores
Y en tu nombre escribir
Mil canciones de amores
Pa’ que pienses en mí, como yo pienso en ti

E|----------------------------------------------------------|-------------|
B|----------------------------------------------------------|-------------|
G|----------------------------------------------------------|-------------|
D|-----2-2-1-1-2--------2-2-1--------2-2-1-1-2--2-2-2-2-4-4-|-2-2-2-2-1-2-|
A|-2-2------------2-2---------2--2-2------------------------|-------------|
e|----------------------------------------------------------|-------------|

*

Yo quiero hablarte, quiero hipnotizarte
Una estrella traerte, hasta el cielo bajarte

E|------------------------------------------------------------|
B|------------------------------------------------------------|
G|------------------------------------------------------------|
D|-----2-2-1-2------2-2-2-1-2------2-2-2-1-1------2-2-2-1-1---|
A|-------------2--------------2--2-----------2--2-----------2-|
e|------------------------------------------------------------|

Cantarte al oído y ver tu piel al erizarte
Llevarte lentamente donde estemos tú y yo aparte

E|----------------------------------|
B|----------------------------------|
G|----------------------------------|
D|---2x6-2x5-4-4------2x6-2x5-4-4---|
A|-2-------------2--2-------------2-|
e|----------------------------------|

Y si te provoca, te beso la boca
Sueño con tocarte, quitarte la ropa

E|------------------------------------------------------------|
B|------------------------------------------------------------|
G|------------------------------------------------------------|
D|---2-2-2-1-2------2-2-2-1-2------2-2-2-1-1------2-2-2-1-1---|
A|-------------2--------------2--------------2--------------2-|
e|------------------------------------------------------------|

No confundas mi intención por decir cosas locas
Te quiero, pero tu cuerpo también me provoca

E|----------------------------------|
B|----------------------------------|
G|----------------------------------|
D|---2x6-2x5-4-4------2x6-2x5-4-4---|
A|-2-------------2--2-------------2-|
e|----------------------------------|

*

Poderte complacer
Cada uno de tus sueños conocer
Hablar juntos hasta el amanecer

E|-----------------------------------------|
B|-----------------------------------------|
G|---2-2-2-1-2----2x7-1-2----2x7-1---------|
D|-2------------2----------2-------2-------|
A|-----------------------------------------|
e|-----------------------------------------|

Que seas mi mujer
Ser yo el único que te de placer
Cada día de mi vida yo poderte tener

E|-----------------------------------------|
B|---------------------------------1-------|
G|---2-2-2-1-2----2x7-1-2----2x7-4---2-2-2-|
D|-2------------2----------2---------------|
A|-----------------------------------------|
e|-----------------------------------------|


-CORO [x2]-

*

Sé que buscas a alguien que...
Te vuelva a enamorar...
Que no te haga sentir mal...

E|--------------------------------------------------------------|
B|---------0-0---------------0-0--------------------------------|
G|-4-----------2-1-2-4/6~/4------2-1-2------------------1-4-----|
D|------------------------------------4/6~/4--4-4-2-4-2-----6/4-|
A|--------------------------------------------------------------|
e|--------------------------------------------------------------|


-CORO-
Este fichero es trabajo propio de su transcriptor y representa su interpretación personal de la canción. El material contenido en esta página es
para exclusivo uso privado, por lo que se prohibe su reproducción o retransmisión, así como su uso para fines comerciales.

© LaCuerda.net · Aviso Legal · Privacidad