Acordes de Guitarra » M »Manu Chao » Me gustas tu (Tab)

Me gustas tu
Manu Chao

Letras, Notas, Punteos, Tablaturas y Acordes de Guitarra (Tabs & Chords)

  • Letra y Acordes
    Bm                     A            MIm
    Me gustan los aviones, me gustas tú, me gusta viajar,
                  Bm                   A
    Me gustas tú, me gusta la mañana, me gustas tú,
    MIm                                 Bm
    Me gusta el viento, me gustas tú, me gusta soñar,
    A              MIm
    Me gustas tú, me gusta la mar, me gustas tú
    
       Bm           A                MIm
       Qué voy a hacer, je ne Said paz
                                     Bm
       Qué voy a hacer, je ne Said plus
                    A                MIm
       Qué voy a hacer, je seis Verdú
    
       Qué hora son, mi corazón
    
    Bm                 A            MIm
    Me gusta la moto, me gustas tú, me gusta correr,
    
  • Letra y Acordes
                  Bm     A     Em
              e-----------------7~~----------
              B----7~----5~~----8~~----------
              G----7~----6~~----9~~----------
              D----9~----7~~-----------------
              A------------------------------
              E------------------------------
    
    GUITARRA 3: Hace el punteo principal de la entrada
    
        Bm    A      Em                   Bm     A     Em
    e--------------------7~------------------------------7~----
    B------7~-----5~--------------------------7~----5~---------
    G-----------------9~-------7---7-6-----------------9~------
    D---9~-----7~-----------------9--------9~-----7~-----------
    A----------------------------------------------------------
    E----------------------------------------------------------
    
                   Bm     A     Em
    e-I----------------------------7~----I  esta figura
    
  • Tablatura
              Bm            A
    me gustan los aviones me gustas tu
    
               Em
    ME GUSTA EL REGGE ME GUSTAS TU
    2ª GUITARRA: TODA LOA CANCION VA ASÍ
    
    e---2---0-7---------------------------|
    B--0--2--0--5-0-3-2-1-----------------|
    G-------------------------------------|
    D-------------------------------------|
    A-------------------------------------|
    E-------------------------------------|
    
    
    3ª GUITARRA: ASÍ VA IGUAL TODA LA CANCION
    
    e--2----5------7-------------------|
    B--3----5----8---------------------|
    G--4----6----9---------------------|
    
  • Tablatura
              Bm            A
    me gustan los aviones me gustas tu
    
               Em
    ME GUSTA EL REGGAE ME GUSTAS TU
    2ª GUITARRA: TODA LA CANCION VA ASÍ
    
    e----------------12-------------------|
    B-----11----9--9----9-----------------|
    G---9-----7-----------9-12-11-9-------|
    D-------------------------------------|
    A-------------------------------------|
    E-------------------------------------|
    
    
    3ª GUITARRA: ASÍ VA IGUAL TODA LA CANCION
    
    e--2----5----7---------------------|
    B--3----5----8---------------------|
    G--4----6----9---------------------|
    
  • Tab p/Bajo
    Version completa y 99,9% correcta. La idea de la cancion es siempre lo mismo, nada mas que a
    medida que va avanzando el tema se complica un poco. Donde hay compases sin notas hay que
    dejarlo al aire.
    
    
    G|----------------------|----------------------|----------------------|----------------------|
    D|----------------------|----------------------|----------------------|----------------------|
    A|----------------------|----------------------|----------------------|----------------------|
    E|----------------------|----------------------|----------------------|----------------------|
    
    
    G|----------------------|----------------------|----------------------|----------------------|
    D|----------------------|----------------------|----------------------|----------------------|
    A|--------2--------000--|-------2---------222--|--------2--------000--|-------2---------202--|
    E|--0----------0-3------|--2---------2---------|--0----------0-3------|--2---------2--2------|
    
    
    G|---------------
  • +
    ¡Colabora con nosotros!
    Envíanos tu versión de esta canción
  • Tutorial
    Como tocar Me Gustas Tu; How to Play Me gustas tu; Manu Chao; Karma Guitar
    9:48

Letra de Me gustas tu
GUITARRA 3: Hace el punteo principal de la entrada
****************************************************************
(LA CANCION ENTRA PRIMERO CON LA SIGUIENTE FRASE:)
(JUSTAMENTE DESPUES ENTRA EL RITMO CON LOS GUITARREOS ANTERIORES)
Te Lo Dije Bien Clarito… Permanece A La Escucha
Permanece A La Escucha
Doce De La Noche En La Habana, Cuba [armónicos]
Once De La Noche En San Salvador, El Salvador [armónicos]
Once De La Noche En Managua, Nicaragua
ESTROFA 1:
Me gustan los aviones, me gustas tú,
me gusta viajar, me gustas tú,
me gusta la mañana, me gustas tú,
me gusta el viento, me gustas tú,
me gusta soñar, me gustas tú,
me gusta la mar, me gustas tú…
¿Qué voy a hacer, ye na se pá?
¿Qué voy a hacer, ye na se plú?
¿Qué voy a hacer, ye sui perrdú?
¿Qué hora son, mi corazón?
ESTROFA 2:
Me gusta la moto, me gustas tú,
me gusta correr, me gustas tú,
me gusta la lluvia, me gustas tú,
me gusta volver, me gustas tú,
me gusta marihuana, me gustas tú,
me gusta colombiana, me gustas tú,
me gusta la montaña, me gustas tú,
me gusta la noche…,(me gustas tú)
¿Qué voy a hacer, ye na se pá?
¿Qué voy a hacer, ye na se plú?
¿Qué voy a hacer, ye sui perrdú?
VOZ FEMENINA Y MASCULINA:
¿Qué hora son, mi corazón?
varias veces y se acompaña como se indica:)
Doce Un Minuto
ESTROFA 3:
Me gusta la cena, me gustas tú,
me gusta la vecina, me gustas tú,
(Radio Reloj, Una De La Mañana)
me gusta su cocina, me gustas tú,
me gusta camelar, me gustas tú,
me gusta la guitarra, me gustas tú,
me gusta el Reggae , me gustas tú
¿Qué voy a hacer, ye na se pá?
¿Qué voy a hacer, ye na se plú?
¿Qué voy a hacer, ye sui perrdú?
¿Qué hora son, mi corazón?
ESTROFA 4:
Me gusta la canela, me gustas tú,
me gusta el fuego, me gustas tú,
me gusta menear, me gustas tú,
me gusta La Coruña, me gustas tú,
me gusta Malasaña, me gustas tú,
me gusta la castaña, me gustas tú,
me gusta Guatemala…, (me gustas tú)
¿Qué voy a hacer, ye na se pá?
¿Qué voy a hacer, ye na se plú?
¿Qué voy a hacer, ye sui perrdú?
VOZ MASCULINA Y FEMENINA:
¿Qué hora son, mi corazón?
VOZ FEMENINA:
¿Qué voy a hacer, ye na se pá?
¿Qué voy a hacer, ye na se plú?
¿Qué voy a hacer, ye sui perrdú?
VOZ MASCULINA:
¿Qué hora son, mi corazón?
VOZ FEMENINA:
¿Qué voy a hacer, ye na se pá?
¿Qué voy a hacer, ye na se plú?
¿Qué voy a hacer, ye sui perrdú?
VOZ MASCULINA:
¿Qué hora son, mi corazón?
¿Qué hora son, mi corazón? (aquí se canta junta)
VOZ FEMENINA:
¿Qué hora son, mi corazón? (aquí también se canta junta)
VOZ MASCULINA:
¿Qué hora son, mi corazón - on - on? [bip]
VOZ FEMENINA Y MASCULINA:
¿Qué hora son, mi corazón-on? [bip]
VOZ FEMENINA Y MASCULINA:
¿Qué hora son, mi corazón? [bip]
“Cuatro De La Mañana” (hau hau hau hau)
A la bín, a la bán, a la bim bon bán,
a la bín, a la bán, a la bim bon bán,
obladí, obladá, obladí da da
a la bín, a la bán, a la bim bon bán
Y LA CANCION TERMINA CON LAS SIGUENTES FRASES:
“Radio Reloj, Cinco De La Mañana…”
“No Todo Lo Que Es Oro Brilla…”
“Remedio Chino E Infalible…”
FIN
*************************************************************************
LA FIGURA DEL ARMONICO DE ARRIBA QUE SE INDICA DONDE DICE
Cuba y el salvador ES EL SIGUIENTE:
(ES UN ARMONICO NATURAL QUE SE HACE ROZANDO CON LA CUERDA
EN EL TRASTE INDICADO CON LA LLEMA DEL DEDO MEDIO DE LA
MANO IZQUIERDA Y LA MANO DERECHA TOCA DE FORMA NORMAL LA CUERDA
Y ASI SE CREA UN SONIDO COMO ACAMPANADO)
************************************************************************
(EL SONIDO COMO DE UNA SIRENA QUE LLEVA AL FINAL DE LA CANCION
SE HACE CON UN ARMONICO ARTIFICIAL QUE SE APAGA
CON EL PULGAR DERECHO- BUSQUEN EL LUGAR ADECUADO DONDE
APAGARLO EN SU CUERDA- DONDE SE INDICA:)

Videos de Me gustas tu
[ver más videos]

[ver todas las canciones]


© LaCuerda.net · Aviso Legal · Privacidad