Tablatura para Bajo de Manu Chao: Me gustas tu
Conexión · Inscripción
Letras y Acordes
Pantalla Completa
Imprimir
Versión Texto
Añadir Favorito
Otras Versiones

Mostrar Diagramas
Desfile Automático
Formato del Texto


Me gustas tu(BAJ)

Manu Chao

calidad:
mcha0165
AUTOR: Manu Chao
ALBUM: PrOxima EstaciOn Esperanza (2001)
Enviado por Marianito
Version completa y 99,9% correcta. La idea de la cancion es siempre lo mismo, nada mas que a
medida que va avanzando el tema se complica un poco. Donde hay compases sin notas hay que
dejarlo al aire.


G|----------------------|----------------------|----------------------|----------------------|
D|----------------------|----------------------|----------------------|----------------------|
A|----------------------|----------------------|----------------------|----------------------|
E|----------------------|----------------------|----------------------|----------------------|


G|----------------------|----------------------|----------------------|----------------------|
D|----------------------|----------------------|----------------------|----------------------|
A|--------2--------000--|-------2---------222--|--------2--------000--|-------2---------202--|
E|--0----------0-3------|--2---------2---------|--0----------0-3------|--2---------2--2------|


G|----------------------|----------------------|----------------------|----------------------|
D|----------------------|----------------------|----------------------|----------------------|
A|-----------2------0---|-------2---------202--|-----------2------0---|-------2---------202--|
E|---0---0-3---0-3------|--0---------0--0------|---0---0-3---0-3------|--0---0-----0--0------|


G|----------------------|----------------------|----------------------|----------------------|
D|----------------------|-------------------2--|----------------------|---------2------------|
A|----------2------000--|-------2-2-------2----|----------2------000--|-------2---2---0-222--|
E|--0---0-3---0-3-------|--0---0----0---0------|--0---0-3---0-3-------|--0---0---------------|


G|----------------------|----------------------|----------------------|----------------------|
D|----------------------|----------------------|----------------------|-------------------2--|
A|----------2------000--|--------------------2-|-----------2------0---|-------2-2-------2----|
E|--0---0-3---0-3-------|-0--------------------|---0---0-3---0-3------|--0---0----0---0------|


G|----------------------|----------------------|----------------------|----------------------|
D|----------------------|-------------------22-|----------------------|----------------------|
A|----------2------000--|-------2-2-------2----|----------2------000--|-------2-2-------202--|
E|--0---0-3---0-3-------|--0---0----0---0------|--0---0-3---0-3-------|--0---0----0---0------|


G|----------------------|----------------------|----------------------|----------------------|
D|----------------------|----------------------|----------------------|---------2------------|
A|----------2------000--|-------2-2-------202--|----------2------000--|-------2---2---0-222--|
E|--0---0-3---0-3-------|--0---0----0---0------|--0---0-3---0-3-------|--0---0---------------|


G|----------------------|----------------------|----------------------|----------------------|
D|----------------------|----------------------|----------------------|-----------------222--|
A|----------2------000--|--------------------2-|----------2------000--|-------2-2-----2------|
E|--0---0-3---0-3-------|-0--------------------|--0---0-3---0-3-------|--0---0------0--------|


G|----------------------|----------------------|----------------------|----------------------|
D|----------------------|----------------------|----------------------|----------------------|
A|----------2------000--|-------2-2-------222--|-----------2------0---|-------2---------202--|
E|--0---0-3---0-3-------|--0---0----0---0------|---0---0-3---0-3------|--0---------0--0------|


G|----------------------|----------------------|----------------------|----------------------|
D|----------------------|-----------------222--|----------------------|----------------------|
A|----------------------|-------2-2------------|----------2------000--|-------202-------222--|
E|----------------------|--0---0----0---0------|--0---0-3---0-3-------|--0---0----0---0------|


G|----------------------|----------------------|----------------------|----------------------|
D|----------------------|-----------------222--|----------------------|----------------------|
A|----------2------000--|-------2-2-----2------|----------2------000--|--------222-----------|
E|--0---0-3---0-3-------|--0---0---------------|--0---0-3---0-3-------|--0---0---------------|


G|----------------------|----------------------|----------------------|----------------------|
D|----------------------|----------------------|----------------------|----------------------|
A|----------------------|----------2------000--|-------2-2-------222--|----------2------000--|
E|----------------------|--0---0-3---0-3-------|--0---0----0---0------|--0---0-3---0-3-------|


G|----------------------|----------------------|----------------------|----------------------|
D|----------------------|----------------------|----------------2222--|----------------------|
A|-------2-2-------202--|----------2------000--|-------2-2------------|----------2------000--|
E|--0---0----0---0------|--0---0-3---0-3-------|--0---0----0---0------|--0---0-3---0-3-------|


G|----------------------|----------------------|----------------------|----------------------|
D|---------2------------|----------------------|----------------------|----------------------|
A|-------2---2---0-222--|----------2------000--|----------------------|----------2------000--|
E|--0---0---------------|--0---0-3---0-3-------|----------------------|--0---0-3---0-3-------|


G|----------------------|----------------------|----------------------|----------------------|
D|----------------------|----------------------|----------------------|----------------------|
A|-------2-2-------222--|----------2------000--|-------2-2-------202--|----------2------000--|
E|--0---0----0---0------|--0---0-3---0-3-------|--0---0----0---0------|--0---0-3---0-3-------|


G|----------------------|----------------------|----------------------|----------------------|
D|----------------2222--|----------------------|----------------------|----------------------|
A|-------2-2------------|----------2------000--|----------------------|----------2------000--|
E|--0---0----0---0------|--0---0-3---0-3-------|----------------------|--0---0-3---0-3-------|


G|----------------------|----------------------|----------------------|----------------------|
D|----------------------|----------------------|----------------------|----------------------|
A|-------2-2-------222--|----------2------000--|-------2-2-------202--|----------------------|
E|--0---0----0---0------|--0---0-3---0-3-------|--0---0----0---0------|----------------------|


G|----------------------|----------------------|----------------------|----------------------|
D|----------------------|----------------------|----------------------|----------------------|
A|----------------------|----------------------|----------------------|--------2--------000--|
E|----------------------|----------------------|----------------------|--0----------0-3------|


G|----------------------|----------------------|----------------------|----------------------|
D|----------------------|----------------------|----------------------|----------------------|
A|-------202-------222--|----------------------|----------------------|----------------------|
E|--0---0----0---0------|--0-------------------|----------------------|----------------------|


G|----------------------|----------------------|----------------------|----------------------|
D|----------------------|----------------------|----------------------|----------------------|
A|----------------------|----------------------|----------2------000--|-------2-2-------222--|
E|----------------------|--0----0----000--000--|--0---0-3---0-3-------|--0---0----0---0------|


G|----------------------|----------------------|----------------------|----------------------|
D|----------------------|----------------------|----------------------|----------------------|
A|----------2------000--|-------2-2-------202--|----------------------|----------------------|
E|--0---0-3---0-3-------|--0---0----0---0------|--0-------------------|----------------------|


Y bueno aca esta. Pueden tocarlo con el tema sonando de fondo porque esta anotado todo. Espero
que entiendan y que puedan guiarse con la letra (no puse la letra sobre las tablaturas porque
iba a quedar muy confuso). Cualquier consulta escribanme a maro_rnr@hotmail.com.
Este fichero es trabajo propio de su transcriptor y representa su interpretación personal de la canción. El material contenido en esta página es
para exclusivo uso privado, por lo que se prohibe su reproducción o retransmisión, así como su uso para fines comerciales.


© LaCuerda.net · Aviso Legal · Privacidad