Acordes de Guitarra » M »Manu Chao » El Viento (Tab)

El Viento
Manu Chao

Letras, Acordes y Tabs para Guitarra, Bajo y Ukulele

  • Intro: Am   G
    
              Am                     G
    A)        El viento viene, el viento se va
                Am           G
              Por la frontera
              Am                     G
              El viento viene, el viento se va.
     
    A)        El hambre viene, el hombre se va
              Sin más razón
              El hambre viene, el hombre se va.
     
             Am          G
    B)        Por LA carretera... (2 veces)
     
     
    A)        LA suerte viene, LA suerte se va
              Por la frontera
              La suerte viene, la suerte se va.
    
  • Este es el riff con el que arranca la version vivo de baionera
    
    ------------------------------------------
    --------------------------------7---------
    --7-7-7-7-7-------7-7--------5-----5---7--
    -------------5-5-------4-4----------------
    ------------------------------------------
    ------------------------------------------
    
    
    ------------------------------------------
    ------------------------------------------
    --7-7-7-7-7-------7-7--------5------------
    -------------5-5-------4-4----------------
    ------------------------------------------
    ------------------------------------------
    
    este riff lo hace durante toda la cancion practicamente! en el
    solo del medio es casi igual pero con gua gua! Solo varia entre
    la dos partes del riff. hace este arreglito
    abriendo y cerrando el gua gua!
    
    HACERLO SIN PULSAR LAS CUERDAS CON LA PUA. SOLO TOCAR CON LA MANO
    IZQUIERDA.
    
    -------------------------------------------
    -------------------------------------------
    -------------------------------------------
    ---
  • +
    ¡Colabora con nosotros!
    Envíanos tu versión de esta canción

Letra de El Viento
A) El viento viene, el viento se va
Por la frontera
El viento viene, el viento se va.

A) El hambre viene, el hombre se va
Sin más razón
El hambre viene, el hombre se va.



Por la frontera
La suerte viene, la suerte se va.

A) El hambre viene, el hombre se va
Sin más razón
El hambre viene, el hombre se va.
Cuando volverá...




[El Viento chords][El Viento cifra]
© LaCuerda.net · aviso legal · privacidad · es · en · pt · contacto
DINAMICO