Tablatura para Bajo de Maná: Pobre juan
Conexión · Inscripción
Letras y Acordes
Pantalla Completa
Imprimir
Versión Texto
Añadir Favorito
Otras Versiones

Mostrar Diagramas
Desfile Automático
Formato del Texto


Pobre juan(BAJ)

Maná

calidad:
mana0768
AUTOR: Fher Olvera
ALBUM: Revolución de Amor
Enviado por Israel
ESTA ROLA VA PARA TODAS LAS FAMILIAS QUE DEBIDO
A LAS INJUSTICIAS EN NUESTROS PAISES SE HAN VISTO
AFECTADAS POR LA INMIGRACION ASI COMO A LA
RAZA TRABAJADORA Y HONESTA EXTRANJERA EN LOS
ESTADOS UNIDOS.

INTRO

G----------------------------------------
D--9-9-9-9-9-9--8-8--6-6-6-6-6-6--4-4----
A----------------------------------------
E----------------------------------------

G------------------------------------------
D--2-2-2-2-2---2-2--4-4-4-4-4--8-8--11-11--
A------------2-----------------------------
E------------------------------------------

VERSO 1
Juan se lanzo...

G----------------------------------------
D--9-9-9-9-9-9--8-8--6-6-6-6-6-6--4-4----
A----------------------------------------
E----------------------------------------

G------------------------------------------
D--2-2-2-2-2---2-2--4-4-4-4-4--8-8--11-11--
A------------2-----------------------------
E------------------------------------------

TODO ESO 2 VECES

La historia es...

G----------------------------------------
D--9-9-9-9-9-9--8-8--6-6-6-6-6-6--4-4----
A----------------------------------------
E----------------------------------------

G----------------------------------------
D--2-2-2-2-2-2--1-1----------------------
A--------------------4-4-4-4-4-4--2-2----
E----------------------------------------

G----------------------------------------
D----------------------------------------
A--------------------2-2-2-2-2-2---------
E--2-2-2-2-2-2--0-0---------------0-0----

G------------------------------------------
D------------------------------------------
A--2-2-2-2-2-2-------2-2-2-2-2------1---2--
E---------------2-2-------------2-4---2----

VERSO 2
Pero este Juan...
Juan le enseño al coyote...

G---------------------------
D--------------------------- x2
A--2-1-------------1---2----
E------4-2-0-2-2-4---2------

Mire usted que yo...
Pero el coyote...

G-------------------------------------
D-------------------------------------
A--2-1-------6-4-2-----2---2---2------
E------4-2-0-------2-0---0---2---2----

PRE CORO

G-------------
D-------------
A------6------
E--0-2---4----

CORO 1
Juan ya nunca regreso...

G-------------------------------
D-------------------------------
A------6-------------6----------
E--0-2---4-6-7-2-0-2---4-0-2----

SE REPITE EL INTRO UNA VEZ
SE REPITE TODO DESDE EL SEGUNDO VERSO

CORO 2
Juan ya nunca regreso...

G-------------------------------
D-------------------------------
A------6-------------6----------
E--0-2---4-6-7-2-0-2---4-0-2----

Y Maria lo fue a buscar...

G-------------------
D-------------------
A------6------------
E--0-2---4-2-0-2----

SALIDA

G----------------------------------------
D--9-9-9-9-9-9--8-8--6-6-6-6-6-6--4-4----
A----------------------------------------
E----------------------------------------

G------------------------------------------
D--2-2-2-2-2---2-2--4-4-4-4-4--8-8--11-11--
A------------2-----------------------------
E------------------------------------------

G----------------------------------------
D--9-9-9-9-9-9--8-8--6-6-6-6-6-6--4-4----
A----------------------------------------
E----------------------------------------

G-------------------------
D--2-2-2-2-2-2--4-4--9----
A-------------------------
E-------------------------

NOTA; EN GRAN PARTE DE ESTA ROLA EL BAJO
MARCA LAS NOTAS MUY RAPIDO, HE TRATADO DE
INCLUIR TODAS LAS PISADAS. OIGAN BIEN EL
DISCO PORQUE A VECES APENAS SE OYE EL BAJO.
Este fichero es trabajo propio de su transcriptor y representa su interpretación personal de la canción. El material contenido en esta página es
para exclusivo uso privado, por lo que se prohibe su reproducción o retransmisión, así como su uso para fines comerciales.

© LaCuerda.net · Aviso Legal · Privacidad