Tablatura para Guitarra de Maná: Me voy a convertir en un ave
Conexión · Inscripción
Letras y Acordes
Pantalla Completa
Imprimir
Versión Texto
Añadir Favorito
Otras Versiones

Mostrar Diagramas
Desfile Automático
Manipular Acordes
Formato del Texto


Maná
Me voy a convertir en un ave(TAB)
calidad:
mana0453
AUTOR: Fher Gonzalez
ALBUM: Sueños Liquidos (1998)
Enviado por leandro
HOLA AMIGOS COMO ESTAN YO SIGO TRABAJANDO EN LOS TAB DE MANÁ
PARA MANDARCELOS A TODOS USTEDES Y AHORA LES VOY A MANDAR UNA
CANCIÓN DE BUENAS OK AHI LES VA!!!!!
===========================COMIENZO============================
VERSOS:
(EL PRIMER VERSO NO TIENE GUITARRA)
Aqui estoy injustamente preso en una celda, la
policia me esta acusando, no entiendo de que, dicen
que los derechos humanos, me van a ayudar, pero
aqui yo no veo humanos, solo puros hijos de su
perra.

(AHORA LA GUITARRA ENPIEZA HACER ESTOS ARPEGUIOS)
1.------------------------------------------------------------|
2.------3---------------2-------------3---------------2-------|
3.---------4--------------2--------------4---------------3----|
4.---4--------4------2-------2-----5--------5------4--------4-|
5.-2---------------0------------------------------------------|
6.-------------------------------3--------------2-------------|
(EN LOS SIGUIENTE VARSO LA GUITARRA SIGUE HACIENDO EL ARPEGUIO)

Me estan pateando los cojones, pateando los pies.
Me estan ahogando dentro de la mierda, ahogando la fe.
Soy un saco de huesos destrozados, no puedo moverme,
tengo el rostro desecho ensangrentado
Ya ni puedo ni ver.
1.------------------------------------------------------------|
2.------3---------------2-------------3---------------2-------|
3.---------4--------------2--------------4---------------3----|
4.---4--------4------2-------2-----5--------5------4--------4-|
5.-2---------------0------------------------------------------|
6.-------------------------------3--------------2-------------|

Son tantas las palizas que me han dado, no siento el dolor.
Dolor es el que surge cuando pienso, pienso en mi mujer.
La han desaparecido de la tierra, dolor es no tener su mano fina
no tener su mano aqui.

CORO:
Bm G D A Dolor, amor donde esta mi mujer?
Bm G D A Dolor, amor donde esta mi mujer? 1.------------------------------------------------------------| 2.------3---------------2-------------3---------------2-------| 3.---------4--------------2--------------4---------------3----| 4.---4--------4------2-------2-----5--------5------4--------4-|X4 5.-2---------------0------------------------------------------| 6.-------------------------------3--------------2-------------| (CON ESTOS ACORDES) Bm A G F#.... Mi cuerpo se esta separando de mi mente se quiere huir. Mi mente que sueñe, que vuele muy, muy alto me lleve hasta ti. Me voy a convertir en una ave convertir en una ave, mis alas estan saliendo, mis plumas estoy moviendo cruzar por los barrotes, cruzar al horizonte llegar hasta ti. CORO:
Bm G D A Dolor, amor donde esta mi mujer?
Bm G D A Dolor, amor donde esta mi mujer?
Bm G D A Dolor, amor donde esta mi mujer?
Bm G D A Dolor, amor donde esta mi mujer? OH,OH,OH,OH,OH,OH.................!!!!! ===============================FIN=========================== BUENO AMIGOS ESO ES TODO YA ESTA SOLO "practiquen" CHAU. LEANDRO_TRANSCRIPCIONES@HOTMAIL.COM 22/01/06 CHAU!!!!!!!
Este fichero es trabajo propio de su transcriptor y representa su interpretación personal de la canción. El material contenido en esta página es
para exclusivo uso privado, por lo que se prohibe su reproducción o retransmisión, así como su uso para fines comerciales.
© LaCuerda.net · Aviso Legal · Privacidad