Tablatura para Bajo de Maná: Me Vale
Conexión · Inscripción
Letras y Acordes
Pantalla Completa
Imprimir
Versión Texto
Añadir Favorito
Otras Versiones

Mostrar Diagramas
Desfile Automático
Formato del Texto


Me Vale(BAJ)

Maná

calidad:
mana0445
AUTOR: Alex
ALBUM: Donde Jugaran los Niños? (1992)
Enviado por Juan
No es por menospreciar el anterior trabajo pero estoy seguro
 que este es el verdadero:

Introduccion:
G|--------------------------------------|  2X
D|-----------------------9---------4----|
A|------4--------4---777--7---5555--5---|
E|-5555--5--5555--5---------------------|

Verso
G|--------------------------------------|  
D|-----------------------9---------4----| 9x
A|------4--------4---777--7---5555--5---|
E|-5555--5--5555--5---------------------|

Algunas variaciones que se oyen en el verso: 
G|--------------------------------------| (que se tocan despues del Segundo verso)
D|-----------------------7---------6----|  
A|------4--------4---777--7---5555--5---|
E|-5555--5--5555--5---------------------|


coro
G|--------------------------------------|  4X 
D|--------------------------------------|
A|--------------------------555555555---|
E|-5555555555---222222222---------------|

Puente:

G|-------------------------------------------|  
D|-------------------------------------------|
A|--7777777---9999999---555555---------------|
E|------------------------------5555555------|

G|-------------------------------------------|  
D|-------------------------------------------|
A|--7777777---9999999---555555555555---------|
E|-------------------------------------------|


Solo – igual al coro

Post Solo igual al verso

Outro-
Coro 2x
Verso 2x
Coro 4x
Este fichero es trabajo propio de su transcriptor y representa su interpretación personal de la canción. El material contenido en esta página es
para exclusivo uso privado, por lo que se prohibe su reproducción o retransmisión, así como su uso para fines comerciales.

© LaCuerda.net · Aviso Legal · Privacidad