Acordes de Guitarra » M »Malacates Trebol Shop » Déjame llegar (Tab)

Déjame llegar
Malacates Trebol Shop

Letras, Acordes y Tabs para Guitarra, Bajo y Ukulele

  •       G       Em 7
    e -------3-----0---
    b -------3-----0---
    g -------0-----0---
    d -------0-----0---
    a -------2-----2---
    E -------3-----0---
    
    
    INTRO: G x (8 VECES)
    
    G          SIm
    Ven sientate mujer
    G          SIm
    que no quieres un cafe
    C            Em7    D     G
    que tenemos mucho que hablar
    
    G
    Por ahi yo me he enterado
    
  • G          Bm
    Ven, siéntate mujer
    G              Bm
    Que…no quieres un café?
    C            Em D           G
    Que tenemos mucho que hablar
    
    G
    Por ahí yo me he enterado
    Bm
    Que él no era lo esperado
    C                  Em     D
    y que te ha hecho hasta llorar
    
    G
    Cuantas flores te ha mandado
    Bm                          C
    Cuantas veces te ha tocado él
             Em  D
    Pensando sólo en…
    
  • Esta es la version correcta del solo de esta rola, o
    por lo menos asi suena mejor!!!
    
    e||-----------------------------------------||
    B||-8-8-8-8---8-10-10/12-12-12--12-12/15\---||
    G||---------9-------------------------------||
    D||-----------------------------------------||
    A||-----------------------------------------||
    E||-----------------------------------------||
    
    e||-----------------------------------------||
    B||-8-8-8-8---8-10-10/12-12--13-12-8-8h10-8-||
    G||---------9-------------------------------||
    D||-----------------------------------------||
    A||-----------------------------------------||
    E||-----------------------------------------||
    
    e||-12-12-12-10-10-10-8--8--7-7--||
    B||-13-13-13-12-12-12-10-10-8-8--||
    G||------------------------------||
    D||------------------------------||
    A||------------------------------||
    E||------------------------------||
    
    e||-10-10-10-8--8--8--7-7-7-8--7-||
    B||-12-12-12-10-10-10-8-8-8-10-8-||
    G||------------------------------
  • Hola, Saludos a todos, creo que suena un poco mejor que
    las otras, y son pocas las modificaciones,
    desde Xela, jr.oroxom@gmail.com
    
    e||--------------7h10-10-10--10-7---------||
    B||-8-8-8---8-10------------------10------||
    G||-------9-------------------------------||
    D||---------------------------------------||
    A||---------------------------------------||
    E||---------------------------------------||
    
    e||----------------------------------------||
    B||-8-8-8---8-10-10~12-12--13-12-10-8h10-8-||
    G||-------9--------------------------------||
    D||----------------------------------------||
    A||----------------------------------------||
    E||----------------------------------------||
    
    e||-12-12-12-10-10-10-8--8--7-7--||
    B||-13-13-13-12-12-12-10-10-8-8--||
    G||------------------------------||
    D||------------------------------||
    A||------------------------------||
    E||------------------------------||
    
    e||-10-10-10-8--8--8--7-7-7-8--7-||
    B||-12-12-12-10-10-10-8-8-8-10-8-||
    G||----------------------------
  • Intro
    
    G          Sim
    Ven siéntate mujer
    G          Sim
    que no quieres un café
    C            Em7    D     G
    que tenemos mucho que hablar
    
    
    g -----------------------------
    d -----------------------------
    a -----------------------------
    e---3-33--33-330--3-33-33-330—
    
    Por ahi yo me he enterado,  que el no era lo esperado, y que
    a -------------------- -----2---22---22----222--------3-33-33-333-
    e-3-----33-----33----330------------------------------------------
    
    Te ha hecho hasta llorar
    g -------------------------
    d ----9----------7---------
    a -7-----7---5-------5-----
    e--------------------------
    
    Cuantas flores te ha mandado, cuantas veces te tocado,     ellllll
    a --------------------------- 2---22-----22-------222-----3-33-33-333-
    e-3--------33-----33----330-------------------------------------------
    
    Pensando solo (pensando solo) en...
    g -------------------------
    d ----9----------7---------
    a -7-----7---5-------5-----
    e--------------------------
    
    En esta parte deben llevar el ritmo de
  • +
    ¡Colabora con nosotros!
    Envíanos tu versión de esta canción

Letra de Déjame llegar
Ven sientate mujer
que no quieres un cafe
que tenemos mucho que hablar
Por ahi yo me he enterado
que el no era lo esperado
y que te ha hecho hasta llorar
cuantas folres te ha mandado
cuantas veces te tocado
pensando solo (pensando solo) en...
dejame llegar
quiero decirte
qeu bien te vez
conmigo tu
no necesito
nada mas
(se repiten las mismas notas)
otras veces lo he intentado
y alguien mas esta a tu lado y tu
finjiendo ser feliz
ya no importara el pasado
cuanto tiempo te he esperado aqui
pensando solo (pensando solo) en...
dejame llegar
quiero decirte
qeu bien te vez
conmigo tu
no necesito
nada mas
espero les sirva esta partitura y que se den cuenta
de los errores que tenia la otra...
saludos san pedro, san marcos




[Déjame llegar chords][Déjame llegar cifra]
© LaCuerda.net · aviso legal · privacidad · es · en · pt · contacto