Tablatura para Guitarra de Mago De Oz: Quiero morirme en ti
Conexión · Inscripción
Letras y Acordes
Pantalla Completa
Imprimir
Versión Texto
Añadir Favorito
Otras Versiones

Mostrar Diagramas
Desfile Automático
Manipular Acordes
Formato del Texto


Quiero morirme en ti(TAB)

Mago De Oz

calidad:
mdoz1853
AUTOR: Mago De Oz  corregir
ALBUM: Hechizos, Pócimas y Brujería (2012)
Enviado por marco
ok, aki le traigo el solo de guitarra (o al menos eso parece)
de la cancion de mago,esta muy sencillo lo se, pero lo dejo
para que lo mejoren


Title: quiero morirme en ti_solo
Artist: Mago de oz
Album: Hechizos, Pocimas y brujeria
Electric Guitar



E |----------------------------|----------------------------|
B |--9~----------7-----10~-----|--10-9-----9--7~------------|
G |-----------------9----------|----------------------------|
D |----------------------------|----------------------------|
A |----------------------------|----------------------------|
E |----------------------------|----------------------------|


--------------7-------------|
-----7--9--10----7--9--10---|
--9-------------------------|
----------------------------|
----------------------------|
----------------------------|


-----------------------------------------7----------|
--9~----------7-----------------7--9--10------------|
-----------------9-----------9--------------9--9----|
----------------------------------------------------|
----------------------------------------------------|
----------------------------------------------------|


--7--------7----------------------------------------|
-----------------10----9-----7L----------7L---------|
-----9--9-------------------------------------------|
----------------------------------------------------|
----------------------------------------------------|
----------------------------------------------------|


-----12----11L11-------------12----12~---------12---|
--7~-------------12~---9--9-----9--------9--9-------|
----------------------------------------------------|
----------------------------------------------------|
----------------------------------------------------|
----------------------------------------------------|


-----12~---------------------------------------7----|
--9-----9-----------------------------7--9----------|
-----------9L----------9~-------9-------------------|
----------------------------------------------------|
----------------------------------------------------|
----------------------------------------------------|


--------------------------------7L-7--10----12L12L--|
--7~----------------------9-------------------------|
----------------------------------------------------|
----------------------------------------------------|
----------------------------------------------------|
----------------------------------------------------|


--12L---12L12-------12L12-14----15L15-17L---17L17L--|
----------------------------------------------------|
----------------------------------------------------|
----------------------------------------------------|
----------------------------------------------------|
----------------------------------------------------|
tengo la version de guitar pro por si les interesa, ahi se ve un poco mejor...
Este fichero es trabajo propio de su transcriptor y representa su interpretación personal de la canción. El material contenido en esta página es
para exclusivo uso privado, por lo que se prohibe su reproducción o retransmisión, así como su uso para fines comerciales.

© LaCuerda.net · Aviso Legal · Privacidad