Tablatura para Guitarra de Mago De Oz: Dies Irae
Conexión · Inscripción
Letras y Acordes
Pantalla Completa
Imprimir
Versión Texto
Añadir Favorito
Otras Versiones

Mostrar Diagramas
Desfile Automático
Manipular Acordes
Formato del Texto


Dies Irae(TAB)

Mago De Oz

calidad:
mdoz1712
AUTOR: Txus di Fellatio
ALBUM: Gaia iii - Atlantia (2010)
Enviado por danni
esta es para la intro q en otros sitios solo lo van a encontrar para
el guitar pro, no se si estara correcta pero cualquier correccion me
me avisan a mi correo: danni_sks@hotmail.com


esto es cuando comienza el piano
e|----------------0----------------------
B|-----0------------1~-------------------
G|-------0~--------------------0---------
D|---2----------2----------0-2-----------
A|-2----------3--------------------------
E|---------------------------------------

e|-----7-------------------8-------------
B|-------8~------------------8-----------
G|---------------------------------------
D|---9-----------------------------------
A|-7--------------------10---------------
E|------------3-5-7---8------------------

e|----------5---------------5-------10---------
B|------7-----5-7---5---7-----5-7------10------
G|--------7-------7---5---7-------7------------
D|-9-7-----------------------------------------
A|---------------------------------------------
E|---------------------------------------------

e|-----5---------------7-5-10---------
B|-7-----5-7---5---7------------------
G|---7-------7---5---7----------------
D|------------------------------------
A|------------------------------------
E|------------------------------------

esto es de la flauta
e|-------------------------------10-------------
B|-12-------12-13----13-12-10-10----10-12~------
G|----12-12-------------------------------------
D|----------------------------------------------
A|----------------------------------------------
E|----------------------------------------------

e|----------------------------------------------
B|-12-------12-13----13-12-10-10----10----------
G|----12-12----------------------12----12-7-9---
D|----------------------------------------------
A|----------------------------------------------
E|----------------------------------------------

e|-12-14-15-14-12-------------------------------
B|----------------15----12-13-12-10-12-10h12p10-
G|----------------------------------------------
D|----------------------------------------------
A|----------------------------------------------
E|----------------------------------------------

e|-------12-14-15-17-19-17~---15-14----12-------
B|----------------------------------15----------
G|-12~------------------------------------------
D|----------------------------------------------
A|----------------------------------------------
E|----------------------------------------------

en caso de q lo esten tocando en guitarra acustica puede llevar los
acordes la guitarra 1 y la guitarra 2 puede tocar esto detras
de los acordes

e|-------------------------------10-12-------------
B|-12-------12-13----13-12-10-10-------12-12h13p12-
G|----12-12----------------------------------------
D|-------------------------------------------------
A|-------------------------------------------------
E|-------------------------------------------------

e|-----|    |----------------------------------------
B|-10~-|    |-10-12-13--13-12-10------10-12-12-12----
G|-----|    |----------------------12----------------
D|-----|[x2]|----------------------------------------
A|-----|    |----------------------------------------
E|-----|    |----------------------------------------

e|-10----------------------10------------------------
B|----10~------10-12-12-12----13~-----10-12-13-12-10-
G|----------12---------------------12----------------
D|---------------------------------------------------
A|---------------------------------------------------
E|---------------------------------------------------

e|-----------------
B|-----------------
G|-12-11-9~--------
D|-----------------
A|-----------------
E|-----------------


los acordes los pueden ver en la tablatura q esta antes de estajunto
con la letra
cualquier correccion informenme a mi correo q esta arriba
Este fichero es trabajo propio de su transcriptor y representa su interpretación personal de la canción. El material contenido en esta página es
para exclusivo uso privado, por lo que se prohibe su reproducción o retransmisión, así como su uso para fines comerciales.

© LaCuerda.net · Aviso Legal · Privacidad