Acordes de Guitarra » L »Luz Casal » Rufino (Tab)

Rufino
Luz Casal

Letras, Acordes y Tabs para Guitarra, Bajo y Ukulele

  • |-----6--5-|-----6--5-|-----3--1-|--3-3--1-1--3-1-0--------------|
    |-----6--5-|-----6--5-|-----3--1-|--3-3--1-1--3-1-0--------------|
    |--3-------|--3-------|--3-------|-------------------------------|
    |--3-------|--3-------|--3-------|-------------------------------|
    |----------|----------|----------|-------------------------------|
    |----------|----------|----------|-------------------------------|
    
    Eb F  Eb F  Eb Bb
    
    Bb
    Hace algun tiempo en un bar
    Dm
    conoci a un buen señor de cierta edad
    Eb
    un ejecutivo
    Db                      F      Eb
    jefe de una agencia de publicidad
    Bb
    Vestia un traje de Tweed
    Dm
    
  • --------------------------------------------------- 1ª
    --10--9-- 10--9----7-7-7-7---5-5-5---------B------- 2ª
    ---9--9----9--9----7-7-7-7---4-4-4---------I------- 3ª
    -------------------------------------------S------- 4ª
    -0------0--------0--------------------------------- 5ª
    --------------------------------------------------- 6ª
    
    RE.... MI... RE
    
    --5-5-5-5-4------------------ 1ª
    --5-5-5-5-5------------------ 2ª
    ----------------------------- 3ª
    ----------------------------- 4ª
    ----------------------------- 5ª
    ----------------------------- 6ª
    
    
     LA              
    Hace algún tiempo en un bar
       DO#m
    
  • +
    ¡Colabora con nosotros!
    Envíanos tu versión de esta canción

Letra de Rufino
Hace algun tiempo en un bar
conoci a un buen señor de cierta edad
un ejecutivo
jefe de una agencia de publicidad
Vestia un traje de Tweed
olia a un perfume de 'Givenchy'
y sin ningun motivo
se acerco hasta mi mesa y me dijo asi:
Dime, muñeca, ¿no me encuentras atractivo?
Vente, muñeca, te invito un aperitivo
Riff 1:
Rufino me lleva a jugar al casino
Rufino me invita a comer langostinos
Me gusta verle bailar
Con su aire de pinguino
Rufino es libertino, divino y superficial.
Anoche lo encontre
sentado en la terraza de un cafe
disfrazado de moderno,
los años embutidos en un corse,
bebiendo un daiquiri
oliendo a su eterno 'Givenchy'
enfrascado en la lectura
por fuera 'la luna', por dentro el 'Abc'
Dime, muñeca, ¿no me encuentras atractivo?
Vente, muñeca, te invito un aperitivo
Rufino me lleva a jugar al casino
Rufino me invita a comer langostinos
Me gusta verle bailar
Con su aire de pinguino
Rufino es libertino, divino y superficial.
Dime, muñeca, ¿no me encuentras atractivo?
Vente, muñeca, te invito un aperitivo
Rufino me lleva a jugar al casino
Rufino me invita a comer langostinos
Me gusta verle bailar
Con su aire de pinguino
Rufino es libertino, divino y superficial.
Rufino, me gusta verte bailar
Rufino
Me gusta verte bailar
Tu baile del pinguino
Rufino es libertino, divino y superficial.

Rufino fino
Rufino fino
Rufino fino.




[Rufino chords][Rufino cifra]
© LaCuerda.net · aviso legal · privacidad · es · en · pt · contacto
DINAMICO